Song name
# A B C D E F G H I J K L M N O P Q R S T U V W X Y Z

Scars On Broadway - Cute Machines tab

Scars On Broadway-Cute Machines Tab   
By nudude
------------------------------------------------------------------------------------
This Tab Was Made By Pain Stakingly
Going Over The Concert Video Over And 
Over.But It Turned Out Perfect.I Would Say
Its 99.99% Correct.Please Rate And Leave Comments
So I Can Know How You Guys Think It Turned Out.
------------------------------------------------------------------------------------------
 The Q And S etc Are The Note Type (8th,16th,32th,etc) See The Bottom Of The
Tab For The Legend.For The Letters Closest To The Tab Look In The Duration Legend.
And For The Ones Above Those Look In The Tabulature Legend Although I Will Fill You In On
What You Need To Know Through Out The Tab.

The Tuning Is Dropped C#(C#G#C#F#A#D#) 
----------------------------------------------------------------------------------
This Is The Lead Guitar Tab Look Towards The Bottom Of
The Tab For The Rythm Guitar Tab


INTRO Play 12 Times
Those Arrows Tell You Whether To Do A Downstroke Or An Upstroke

      ^ ^ ^  v ^  ^  ^  ^  ^ v ^  
      S S E  S E  E  E  E  S S S  
D#||-----------------------------|
A#||-----------------------------|
F#||--7-7-7--7-7--7--7--8--8-8-8-|
C#||--0-0-0--0-0--0--0--0--0-0-0-|
G#||-----------------------------|
C#||-----------------------------|


  Verse Play 4 Times


  ^ v ^ v ^ v ^ v ^ v ^ v ^ v ^ v  
  S S S S S S S S S S S S S S S S  
----------------------------------|
----------------------------------|
--7-7-7-7-7-7-7-7-7-7-7-7-8-8-8-8-|
--0-0-0-0-0-0-0-0-0-0-0-0-0-0-0-0-|
----------------------------------|
----------------------------------|


Verse Part 2 Play Once
These Are Octaves Mute The Middle String With Your Index Finger


  S S S S S S S S S S S S S S S S  
----------------------------------|
--7-7-7-7-7-7-7-7-7-7-7-7-7-7-7-7-|
--x-x-x-x-x-x-x-x-x-x-x-x-x-x-x-x-|
--4-4-4-4-4-4-4-4-4-4-4-4-4-4-4-4-|
----------------------------------|
----------------------------------|


  S S S S S S S S S S S S S S S S  
----------------------------------|
--9-9-9-9-9-9-9-9-9-9-9-9-9-9-9-9-|
--x-x-x-x-x-x-x-x-x-x-x-x-x-x-x-x-|
--6-6-6-6-6-6-6-6-6-6-6-6-6-6-6-6-|
----------------------------------|
----------------------------------|


   S  S  S  S  S  S  S  S  S  S  S  S  S  S  S  S  
--------------------------------------------------|
--10-10-10-10-10-10-10-10-10-10-10-10-10-10-10-10-|
---x--x--x--x--x--x--x--x--x--x--x--x--x--x--x--x-|
---7--7--7--7--7--7--7--7--7--7--7--7--7--7--7--7-|
--------------------------------------------------|
--------------------------------------------------|


   S  S  S  S  S  S  S  S  S  S  S  S  S  S  S  S  
--------------------------------------------------|
--13-13-13-13-13-13-13-13-13-13-13-13-13-13-13-13-|
---x--x--x--x--x--x--x--x--x--x--x--x--x--x--x--x-|
--10-10-10-10-10-10-10-10-10-10-10-10-10-10-10-10-|
--------------------------------------------------|
--------------------------------------------------|

CHORUS Play 4 Times 

    E  E  S S S E  S S S S S S S  Play 4 Times 
|--------------------------------|
|--------------------------------|
|*--7--7--7-7-7-7--7-7-8-8-8-8-8-|
|*--0--0--0-0-0-0--0-0-0-0-0-0-0-|
|--------------------------------|
|--------------------------------|


  E  E  S S S E  S S S S S S S  
--------------------------------||
--------------------------------||
--7--7--7-7-7-7--7-7-8-8-8-8-8-*||
--0--0--0-0-0-0--0-0-0-0-0-0-0-*||
--------------------------------||
--------------------------------||

Verse 2 Play Once

  S S S S S S S S S S S S S S S S  
----------------------------------|
--7-7-7-7-7-7-7-7-7-7-7-7-7-7-7-7-|
--x-x-x-x-x-x-x-x-x-x-x-x-x-x-x-x-|
--4-4-4-4-4-4-4-4-4-4-4-4-4-4-4-4-|
----------------------------------|
----------------------------------|


  S S S S S S S S S S S S S S S S  
----------------------------------|
--9-9-9-9-9-9-9-9-9-9-9-9-9-9-9-9-|
--x-x-x-x-x-x-x-x-x-x-x-x-x-x-x-x-|
--6-6-6-6-6-6-6-6-6-6-6-6-6-6-6-6-|
----------------------------------|
----------------------------------|


   S  S  S  S  S  S  S  S  S  S  S  S  S  S  S  S  
--------------------------------------------------|
--10-10-10-10-10-10-10-10-10-10-10-10-10-10-10-10-|
---x--x--x--x--x--x--x--x--x--x--x--x--x--x--x--x-|
---7--7--7--7--7--7--7--7--7--7--7--7--7--7--7--7-|
--------------------------------------------------|
--------------------------------------------------|


  S S S S S S S S S S S S S S S S  
----------------------------------|
--9-9-9-9-9-9-9-9-9-9-9-9-9-9-9-9-|
--x-x-x-x-x-x-x-x-x-x-x-x-x-x-x-x-|
--6-6-6-6-6-6-6-6-6-6-6-6-6-6-6-6-|
----------------------------------|
----------------------------------|


  S S S S S S S S S S S S S S S S  
----------------------------------|
--7-7-7-7-7-7-7-7-7-7-7-7-7-7-7-7-|
--x-x-x-x-x-x-x-x-x-x-x-x-x-x-x-x-|
--4-4-4-4-4-4-4-4-4-4-4-4-4-4-4-4-|
----------------------------------|
----------------------------------|


  S S S S S S S S S S S S S S S S  
----------------------------------|
--9-9-9-9-9-9-9-9-9-9-9-9-9-9-9-9-|
--x-x-x-x-x-x-x-x-x-x-x-x-x-x-x-x-|
--6-6-6-6-6-6-6-6-6-6-6-6-6-6-6-6-|
----------------------------------|
----------------------------------|


   S  S  S  S  S  S  S  S  S  S  S  S  S  S  S  S  
--------------------------------------------------|
--10-10-10-10-10-10-10-10-10-10-10-10-10-10-10-10-|
---x--x--x--x--x--x--x--x--x--x--x--x--x--x--x--x-|
---7--7--7--7--7--7--7--7--7--7--7--7--7--7--7--7-|
--------------------------------------------------|
--------------------------------------------------|


   S  S  S  S  S  S  S  S  S  S  S  S  S  S  S  S  
--------------------------------------------------|
--13-13-13-13-13-13-13-13-13-13-13-13-13-13-13-13-|
---x--x--x--x--x--x--x--x--x--x--x--x--x--x--x--x-|
--10-10-10-10-10-10-10-10-10-10-10-10-10-10-10-10-|
--------------------------------------------------|
--------------------------------------------------|

Bridge Play Once
Those 6s And 5s Are Pick Scrapes He Uses effects So Unless You Know what He Uses
And Have it The Dont Play It
L Just Means Let It Ring Longer Ignore It
  Q    S  S  S  S  S  S  S  S  S  S  S  S  
------------------------------------------|
------------------------------------------|
-------6S-5S-6S-5S-6S-5S-6S-5S-6S-5S-6S-5-|
--0----6S-5S-6S-5S-6S-5S-6S-5S-6S-5S-6S-5-|
--0---------------------------------------|
--0---------------------------------------|


  W                   W                 
-------------------|-------------------|
-------------------|-------------------|
-------------------|-------------------|
--0----------------|--0----------------|
--0----------------|--0----------------|
--0----------------|--0----------------|


  W                 
-------------------|
-------------------|
-------------------|
-------------------|
-------------------|
--0----------------|


   T  T  T  T  T  T  T  T  T  T  T  T  T  T  T  T  T  T 
--------------------------------------------------------
--13-13-13-13-13-13-13-13-13-13-13-13-13-13-13-13-14-14-
---x--x--x--x--x--x--x--x--x--x--x--x--x--x--x--x--x--x-
--10-10-10-10-10-10-10-10-10-10-10-10-10-10-10-10-11-11-
--------------------------------------------------------
--------------------------------------------------------


   T  T  T  T  T  T  T  T  T  T  T  T  T  T  T  T  T  T 
--------------------------------------------------------
--13-13-13-13-13-13-13-13-14-14-14-14-14-14-14-14-10-10-
---x--x--x--x--x--x--x--x--x--x--x--x--x--x--x--x--x--x-
--10-10-10-10-10-10-10-10-11-11-11-11-11-11-11-11--7--7-
--------------------------------------------------------
--------------------------------------------------------


   T  T  T  T  T  T  T  T T T T T T T T T T T T T T T T 
--------------------------------------------------------
--11-11-11-11-11-11-11-11-7-7-7-7-7-7-7-7-7-7-7-7-7-7-7-
---x--x--x--x--x--x--x--x-x-x-x-x-x-x-x-x-x-x-x-x-x-x-x-
---8--8--8--8--8--8--8--8-4-4-4-4-4-4-4-4-4-4-4-4-4-4-4-
--------------------------------------------------------
--------------------------------------------------------


   T  T  T  T  T  T  T  T  T  T  T  T  T  T  T  T  T  T 
--------------------------------------------------------
--13-13-13-13-13-13-13-13-13-13-13-13-13-13-13-13-14-14-
---x--x--x--x--x--x--x--x--x--x--x--x--x--x--x--x--x--x-
--10-10-10-10-10-10-10-10-10-10-10-10-10-10-10-10-11-11-
--------------------------------------------------------
--------------------------------------------------------


   T  T  T  T  T  T  T  T  T  T  T  T  T  T  T  T  T  T 
--------------------------------------------------------
--13-13-13-13-13-13-13-13-14-14-14-14-14-14-14-14-10-10-
---x--x--x--x--x--x--x--x--x--x--x--x--x--x--x--x--x--x-
--10-10-10-10-10-10-10-10-11-11-11-11-11-11-11-11--7--7-
--------------------------------------------------------
--------------------------------------------------------


   T  T  T  T  T  T  T  T H        Q     
----------------------------------------|
--11-11-11-11-11-11-11-11-7--------L----|
---x--x--x--x--x--x--x--x-x-------------|
---8--8--8--8--8--8--8--8-4--------L----|
----------------------------------------|
----------------------------------------|

CHORUS Play 4 Times

    E  E  S S S E  S S S S S S S  
|--------------------------------|
|--------------------------------|
|*--7--7--7-7-7-7--7-7-8-8-8-8-8-|
|*--0--0--0-0-0-0--0-0-0-0-0-0-0-|
|--------------------------------|
|--------------------------------|


  E  E  S S S E  S S S S S S S  
--------------------------------||
--------------------------------||
--7--7--7-7-7-7--7-7-8-8-8-8-8-*||
--0--0--0-0-0-0--0-0-0-0-0-0-0-*||
--------------------------------||
--------------------------------||

OUTRO

  S S S S S S S S S S S S S S S S  
----------------------------------|
--7-7-7-7-7-7-7-7-7-7-7-7-7-7-7-7-|
--x-x-x-x-x-x-x-x-x-x-x-x-x-x-x-x-|
--4-4-4-4-4-4-4-4-4-4-4-4-4-4-4-4-|
----------------------------------|
----------------------------------|


  S S S S S S S S S S S S S S S S  
----------------------------------|
--9-9-9-9-9-9-9-9-9-9-9-9-9-9-9-9-|
--x-x-x-x-x-x-x-x-x-x-x-x-x-x-x-x-|
--6-6-6-6-6-6-6-6-6-6-6-6-6-6-6-6-|
----------------------------------|
----------------------------------|


   S  S  S  S  S  S  S  S  S  S  S  S  S  S  S  S  
--------------------------------------------------|
--10-10-10-10-10-10-10-10-10-10-10-10-10-10-10-10-|
---x--x--x--x--x--x--x--x--x--x--x--x--x--x--x--x-|
---7--7--7--7--7--7--7--7--7--7--7--7--7--7--7--7-|
--------------------------------------------------|
--------------------------------------------------|


  S S S S S S S S S S S S S S S S    W                  
----------------------------------|-------------------||
--9-9-9-9-9-9-9-9-9-9-9-9-9-9-9-9-|-------------------||
--x-x-x-x-x-x-x-x-x-x-x-x-x-x-x-x-|-------------------||
--6-6-6-6-6-6-6-6-6-6-6-6-6-6-6-6-|--0----------------||
----------------------------------|--0----------------||
----------------------------------|--0----------------||





This Is The Rythm Guitar Section

Intro Play 10 Times
Add In On Second Bar

  ^ ^ ^  v ^  ^  ^  ^  ^ v ^  
  S S E  S E  E  E  E  S S S  
-----------------------------|
-----------------------------|
--7-7-7--7-7--7--7--8--8-8-8-|
--0-0-0--0-0--0--0--0--0-0-0-|
-----------------------------|
-----------------------------|

Verse Play 8 Times
  ^ v ^ v ^ v ^ v ^ v ^ v ^ v ^ v  
  S S S S S S S S S S S S S S S S  
----------------------------------|
----------------------------------|
--7-7-7-7-7-7-7-7-7-7-7-7-8-8-8-8-|
--0-0-0-0-0-0-0-0-0-0-0-0-0-0-0-0-|
----------------------------------|
----------------------------------|


CHORUS Play 4 Times

    E  E  S S S E  S S S S S S S  
|--------------------------------|
|--------------------------------|
|*-------------------------------|
|*--0--0--0-0-0-0--0-0-1-1-1-1-1-|
|---0--0--0-0-0-0--0-0-1-1-1-1-1-|
|---0--0--0-0-0-0--0-0-1-1-1-1-1-|


  E  E  S S S E  S S S S S S S  
--------------------------------||
--------------------------------||
-------------------------------*||
--0--0--0-0-0-0--0-0-1-1-1-1-1-*||
--0--0--0-0-0-0--0-0-1-1-1-1-1--||
--0--0--0-0-0-0--0-0-1-1-1-1-1--||

Verse Play 8 Times

  ^ v ^ v ^ v ^ v ^ v ^ v ^ v ^ v  
  S S S S S S S S S S S S S S S S  
----------------------------------|
----------------------------------|
--7-7-7-7-7-7-7-7-7-7-7-7-8-8-8-8-|
--0-0-0-0-0-0-0-0-0-0-0-0-0-0-0-0-|
----------------------------------|
----------------------------------|


Bridge Play Once

  W
------------------|
------------------|
-------------------|
--0----------------|
--0----------------|
--0----------------|


  W                   W                 
-------------------|-------------------|
-------------------|-------------------|
-------------------|-------------------|
--0----------------|--0----------------|
--0----------------|--0----------------|
--0----------------|--0----------------|


  W                   Q    Q    Q    Q     
-------------------|----------------------|
-------------------|----------------------|
-------------------|----------------------|
--0----------------|--6----6----7----6----|
--0----------------|--6----6----7----6----|
--0----------------|--6----6----7----6----|


  Q    Q    Q    Q       Q    Q    Q    Q     
----------------------|----------------------|
----------------------|----------------------|
----------------------|----------------------|
--6----7----3----3----|--4----0----0----0----|
--6----7----3----3----|--4----0----0----0----|
--6----7----3----3----|--4----0----0----0----|


  Q    Q    Q    Q       Q    Q    Q    Q     
----------------------|----------------------|
----------------------|----------------------|
----------------------|----------------------|
--6----6----7----6----|--6----7----3----3----|
--6----6----7----6----|--6----7----3----3----|
--6----6----7----6----|--6----7----3----3----|


  Q    Q    H             
---------------------|
---------------------|
---------------------|
--3----0----L--------|  
--3----0----L--------| 
--3----0----L--------| 

CHORUS Play 4 Times

E  E  S S S E  S S S S S S S  
|--------------------------------|
|--------------------------------|
|--------------------------------|
|---0--0--0-0-0-0--0-0-1-1-1-1-1-|
|---0--0--0-0-0-0--0-0-1-1-1-1-1-|
|---0--0--0-0-0-0--0-0-1-1-1-1-1-|

E  E  S S S E  S S S S S S S  
--------------------------------||
--------------------------------||
-------------------------------*||
--0--0--0-0-0-0--0-0-1-1-1-1-1-*||
--0--0--0-0-0-0--0-0-1-1-1-1-1--||
--0--0--0-0-0-0--0-0-1-1-1-1-1--||

OUTRO PLAY ONCE

  ^ v ^ v ^ v ^ v ^ v ^ v ^ v ^ v  
  S S S S S S S S S S S S S S S S  
----------------------------------|
----------------------------------|
--7-7-7-7-7-7-7-7-7-7-7-7-8-8-8-8-|
--0-0-0-0-0-0-0-0-0-0-0-0-0-0-0-0-|
----------------------------------|
----------------------------------|


  ^ v ^ v ^ v ^ v ^ v ^ v ^ v ^ v  
  S S S S S S S S S S S S S S S S  
----------------------------------|
----------------------------------|
--7-7-7-7-7-7-7-7-7-7-7-7-8-8-8-8-|
--0-0-0-0-0-0-0-0-0-0-0-0-0-0-0-0-|
----------------------------------|
----------------------------------|


  ^ v ^ v ^ v ^ v ^ v ^ v ^ v ^ v  
  S S S S S S S S S S S S S S S S  
----------------------------------|
----------------------------------|
--7-7-7-7-7-7-7-7-7-7-7-7-8-8-8-8-|
--0-0-0-0-0-0-0-0-0-0-0-0-0-0-0-0-|
----------------------------------|
----------------------------------|


  ^ v ^ v ^ v ^ v ^ v ^ v ^ v ^ v                       
  S S S S S S S S S S S S S S S S    W                  
----------------------------------|-------------------||
----------------------------------|-------------------||
--7-7-7-7-7-7-7-7-7-7-7-7-8-8-8-8-|-------------------||
--0-0-0-0-0-0-0-0-0-0-0-0-0-0-0-0-|--0----------------||
----------------------------------|--0----------------||
----------------------------------|--0----------------||








Duration Legend
---------------
W - whole
H - half
Q - quarter
E - 8th
S - 16th
T - 32nd
X - 64th
. - note dotted
|-n-|  - n-tuplets


Tablature Legend
----------------
L - tied note
x - dead note
g - grace note
(n) - ghost note
> - accentuded note
NH - natural harmonic
AH - artificial harmonic
TH - tapped harmonic
SH - semi harmonic
PH - pitch harmonic
h - hammer on
p - pull off
b - bend
br - bendRelease
pb - preBend
pbr - preBendRelease
brb - bendReleaseBend
\n/ - tremolo bar dip
\n - tremolo bar dive
-/n - tremolo bar Release up
/n\ - tremolo bar inverted dip
/n - tremolo bar return
-\n - tremolo bar Release down
S - shift slide
s - legato slide
/ -  slide into from below or out of upwards
\ -  slide into from above or out of downwards
~ - vibrato
W - wide vibrato
tr - trill
TP - tremolo picking
T - tapping
S - slap
P - pop
< - fade in
^ - brush up
v - brush down









Tap to rate this tab
 
# A B C D E F G H I J K L M N O P Q R S T U V W X Y Z