Song name
# A B C D E F G H I J K L M N O P Q R S T U V W X Y Z

Scars On Broadway - Kill Each Other tab

-------------------------------------------------------------------------------
			     Kill each Other- Scars On Broadway
-------------------------------------------------------------------------------
Tabbed by:Imran
Email:

Tuning:C#G#C#F#A#D#

listen to the intro for this part
D#|-----------------------------|
A#|-----------------------------|
F#|----9b---9b---9b--9b---7--7--|
C#|-----------------------------|
G#|-----------------------------|
C#|-----------------------------|


Listen for strumming
D#|-------------------------------------------------------------------------------------|
A#|-------------13----13----------------------------------------------------------------|
F#|-------------12----12----------------------------------------------------------------|
C#|--10---10----10----10----------------------------------------------------------------|
G#|--10---10----10----x-----------------------------------------------------------------|
C#|--10---10----10----x-----------------------------------------------------------------|

I am the one thats calling inside of your......
D#|--------------------------------------------------------------------------------------|
A#|------------------------------------------------------13--13---13--13-----------------|
F#|------------------------------------------------------12--12---12--12-----------------|
C#|----0-------------------------------------------------10--10---10--10-----------------|
G#|----0-------------------------------------------------10--10---10--10-----------------|
C#|----0-------------------------------------------------10--10---10--10-----------------|
  let ring.............................................

  0:33   Nevermind MY NAMEE
D#|--------------------------------------------------------------------------------------|
A#|----------------------------13---13---13---13-----------------------------------------|
F#|----------------------------12---12---12---12-----------------------------------------|
C#|----------------------------10---10---10---10-----------------------------------------|
G#|----0--0---0---0---0---0----10---10---10---10-----------------------------------------|
C#|----0--0---0---0---0---0----10---10---10---10-----------------------------------------|
   PM.......................


   We Dont wanna Believe.  .sometimes daron doesnt play notes after 10...keyboard plays 
later on
D#|-----------------------------------------------------------------------------|
A#|--8---8---8---8---6---6----6---6/---10---10---10---11----11----11\---8-------|
F#|----7---7---7---7---5----5---5---5-----9----9----9----10----10----10----7----|
C#|-----------------------------------------------------------------------------|
G#|-----------------------------------------------------------------------------|
C#|-----------------------------------------------------------------------------|

Iam the one thats living inside of you brain   Fade out
D#|------------------------------------------------------------------------------|
A#|------------------------------------------------------------------------------|
F#|------------------------------------------------------------------------------|
C#|-----0------------------------------------------------------------------------|
G#|-----0------------------------------------------------------------------------|
C#|-----0------------------------------------------------------------------------|


| /  slide up
| \  slide down
| h  hammer-on
| p  pull-off
| ~  vibrato
| +  harmonic
| x  Mute note
===============================================================================
Tap to rate this tab
# A B C D E F G H I J K L M N O P Q R S T U V W X Y Z