Guitaretab - guitar tabs
Song name
# A B C D E F G H I J K L M N O P Q R S T U V W X Y Z

Scars On Broadway - Exploding Reloading tab

Drop C# tuning

gtr 1
|--------------------------------------------------|
|--------------------------------------------------|
|------------------6-------------------------------|
|----8----8--6--8-----8--6--8--6-----------6-------|x2
|---------------------------------8--6--8-----8----|
|-8------------------------------------------------|

gtr 2                                                  both gtrs
|---------------------------------------------------|   |------|
|---------------------------------------------------|   |------|
|---------------------------------------------------|   |-9--9-|
|-8-8-8-8-8-8-8-8-8-8-8-8-8-8-8-8-8-8-8-8-8-8-8-8-8-|x2 |-9--9-|
|-8-8-8-8-8-8-8-8-8-8-8-8-8-8-8-8-8-8-8-8-8-8-8-8-8-|   |-7--7-|
|-8-8-8-8-8-8-8-8-8-8-8-8-8-8-8-8-8-8-8-8-8-8-8-8-8-|   |------|

both gtrs
|-------------------------------------------------|
|-------------------------------------------------|
|-------------------------------------------9---9-|
|-8-8-8-8-8-8-8-8-8-8-8-8-8-8-8-8-8-8-8-8-8-9---9-|x4
|-8-8-8-8-8-8-8-8-8-8-8-8-8-8-8-8-8-8-8-8-8-7---7-|
|-8-8-8-8-8-8-8-8-8-8-8-8-8-8-8-8-8-8-8-8-8-------|

both gtrs
|-------------------------------------|
|-------------------------------------|
|-----------------7-7-7-7-7-7-7-7-7-7-|
|-7-7-7-7-8-8-8-8-7-7-7-7-7-7-7-7-7-7-|
|-7-7-7-7-8-8-8-8-5-5-5-5-5-5-5-5-5-5-|
|-7-7-7-7-8-8-8-8---------------------|

|-------------------------------------|
|-------------------------------------|
|---------101010107-7-7-7-7-7-7-7-7-7-|
|-7-7-7-7-101010107-7-7-7-7-7-7-7-7-7-|
|-7-7-7-7-8-8-8-8-5-5-5-5-5-5-5-5-5-5-|
|-7-7-7-7-----------------------------|

|-------------------------------------|
|-------------------------------------|
|-----------------7-7-7-7-7-7-7-7-7-7-|
|-7-7-7-7-8-8-8-8-7-7-7-7-7-7-7-7-7-7-|
|-7-7-7-7-8-8-8-8-5-5-5-5-5-5-5-5-5-5-|
|-7-7-7-7-8-8-8-8---------------------|

repeat all once

gtr 1
|--------------------------------------------------|
|--------------------------------------------------|
|------------------6-------------------------------|
|----8----8--6--8-----8--6--8--6-----------6-------|x2
|---------------------------------8--6--8-----8----|
|-8------------------------------------------------|

[ Tab from: http://www.guitaretab.com/s/scars-on-broadway/112157.html ]
|--------------------------------------------------|
|--------------------------------------------------|
|------------------5-------------------------------|
|----7----7--5--7-----7--5--7--5-----------5-------|x2
|---------------------------------7--5--7-----7----|
|-7------------------------------------------------|


|--------------------------------------------------|
|--------------------------------------------------|
|------------------6-------------------------------|
|----8----8--6--8-----8--6--8--6-----------6-------|x2
|---------------------------------8--6--8-----8----|
|-8------------------------------------------------|

|--------------------------------------------------|
|--------------------------------------------------|
|------------------5-------------------------------|
|----7----7--5--7-----7--5--7--5-----------5-------|x2
|---------------------------------7--5--7-----7----|
|-7------------------------------------------------|

gtr 2
|--------------------|
|--------------------|   listen carefully, u can here him play 8 notes, 
|--------------------|   pauses for like a second and plays them again
|-8-8-8-8-8-8-8-8----|x4
|-8-8-8-8-8-8-8-8----|
|-8-8-8-8-8-8-8-8----|
...............

|--------------------|
|--------------------|
|--------------------|
|-7-7-7-7-7-7-7-7----|x4
|-7-7-7-7-7-7-7-7----|
|-7-7-7-7-7-7-7-7----|
...............

|--------------------|
|--------------------| 
|--------------------|
|-8-8-8-8-8-8-8-8----|x4
|-8-8-8-8-8-8-8-8----|
|-8-8-8-8-8-8-8-8----|
...............


|--------------------|
|--------------------|
|--------------------|
|-7-7-7-7-7-7-7-7----|x4
|-7-7-7-7-7-7-7-7----|
|-7-7-7-7-7-7-7-7----|
...............

pick scrape here

both gtrs
|-------------------------------------|
|-------------------------------------|
|-----------------7-7-7-7-7-7-7-7-7-7-|
|-7-7-7-7-8-8-8-8-7-7-7-7-7-7-7-7-7-7-|
|-7-7-7-7-8-8-8-8-5-5-5-5-5-5-5-5-5-5-|
|-7-7-7-7-8-8-8-8---------------------|

|-------------------------------------|
|-------------------------------------|
|---------101010107-7-7-7-7-7-7-7-7-7-|
|-7-7-7-7-101010107-7-7-7-7-7-7-7-7-7-|
|-7-7-7-7-8-8-8-8-5-5-5-5-5-5-5-5-5-5-|
|-7-7-7-7-----------------------------|

|-------------------------------------|
|-------------------------------------|
|-----------------7-7-7-7-7-7-7-7-7-7-|
|-7-7-7-7-8-8-8-8-7-7-7-7-7-7-7-7-7-7-|
|-7-7-7-7-8-8-8-8-5-5-5-5-5-5-5-5-5-5-|
|-7-7-7-7-8-8-8-8---------------------|

both gtrs
|-------------------------------------------------|
|-------------------------------------------------|
|-------------------------------------------9---9-|
|-8-8-8-8-8-8-8-8-8-8-8-8-8-8-8-8-8-8-8-8-8-9---9-|x2
|-8-8-8-8-8-8-8-8-8-8-8-8-8-8-8-8-8-8-8-8-8-7---7-|
|-8-8-8-8-8-8-8-8-8-8-8-8-8-8-8-8-8-8-8-8-8-------|

Related for Exploding Reloading tab
Advertisement will be closed in 10 seconds