Song name
# A B C D E F G H I J K L M N O P Q R S T U V W X Y Z

Scars On Broadway - Scars On Broadway tab

Help us improve GuitareTab! Take a short survey!
Band: Scars on Broadway
Title: Scars on Broadway
Album: Scars on Broadway (Bonustrack)


Part I (two times)

Guitar 1:
without distortion, uses an echo effect
------------------------------------|
------------------------------------|
------------------------------------|
-----------10--7--------------------|
---7--8--------------7--8-----10--7-|
-0-------0--------0--------0--------|

Part II (two times)

Guitar 1:
without distortion
------------------------------------|
------------------------------------|
------------------------------------|
-----------10--7--------------------|
---7--8--------------7--8-----10--7-|
-0-------0--------0--------0--------|

Guitar 2:
with distortion, let ring
------------------------------------|
------------------------------------|
------------------------------------|
-0----------------------------------|
-0----------------------------------|
-0----------------------------------|

Part III (two times)

Guitar 1:
with distortion
---------------------------------------|
---------------------------------------|
---------10---9-------10---7-----------|
-7---8---10---9-------10---7---7---0---|
-7---8---8----7-------8----5---7---0---|
-7---8-------------------------7---0---|
                  ^                   ^
                 Guitar 2            Guitar 2

Guitar 2 puts the pleck between two strings and moves it forwards and backwards for 
these weird sounds

Repeat:
-Part I with distortion
-Part III
-Part I with distortion
Related for Scars On Broadway tab