Guitaretab - guitar tabs
Song name
# A B C D E F G H I J K L M N O P Q R S T U V W X Y Z

Scars On Broadway - Funny tab

Scars on Broadway - Funny 

Tuning: C# G# C#... 

A: 

|-------------------------------------------------------| 
|-------------------------------------------------------| 
|-------------------------------------------------------| 
|-------------------------------------------------------| 
|-------------------------------------------------------| 
|---7-----9--10--5-----7--9--3-----5--7--2----10--9-----| x 2 


A: 
[ Tab from: http://www.guitaretab.com/s/scars-on-broadway/170169.html ]
|-----------(10)------| 
|-(13)-(12)------(9)--| () synthesizer 
|--5----4----2----1---| 
|--7----5----3----2---| 
|--7----5----3----2---| 
|--7----5----3----2---| 

A x 2 

A: 

PM........................., 
|-----------------------| 
|-----------------------| 
|--5----4----2----1-----| 
|--7----5----3----2-----| x 2 
|-----------------------| 
|-----------------------| 


A: 

|-----------(10)-(12)-| 
|-(13)-(12)-6----(9)--| () synthesizer 
|--5----4----7----1---| 
|--7----5----7----2---| x 2 
|--7----5----5----2---| 
|--7----5---------2---| 



Ax 2 

A x 2
Related for Funny tab