Song name
# A B C D E F G H I J K L M N O P Q R S T U V W X Y Z

Scars On Broadway - China Girl tab

As played in various concerts during their (short) 2008 tour, this is Daron Malakian's 
version of David Bowie's China Girl I tabbed out at request on SOADFans.com.

Live at Union Station - reference:
http://pl.youtube.com/watch?v=eLa-wnlnLiE
(apologies for the Polish link)

Daron:

D#|-----------|-------------------------------------|
A#|6--5--3--2-|--6--6-----5--5-----3--3-----2--2----|
F#|7--5--3--2-|---7--7-7---5--5-5---3--3-3---2--2-2-|
C#|7--5--3--2-|-7-----7--------5--------3--------2--|
G#|5--3--1--0-|5---5-----3--3-----1--1-----0--0-----|
C#|-----------|-------------------------------------|

Frankie:

D#|-----------------------------------------------|
A#|-------------------------6h8/10-8-8h10-8-------|
F#|------------5h7-5/7---5h7--------7------7-5/7*-|
C#|---------3h5-----------------------------------|
G#|3h5---3h5--------------------------------------|
C#|-----------------------------------------------|

D#|-----------------------------------------------|
A#|---5h6-5h6p5-----------------------------------|
F#|5h7---------7-5--------------------------------|
C#|---------------7-5-5/7-------------------------|
G#|-----------------------------------------------|
C#|-----------------------------------------------|
Tap to rate this tab
 
# A B C D E F G H I J K L M N O P Q R S T U V W X Y Z