Song name
# A B C D E F G H I J K L M N O P Q R S T U V W X Y Z

Scars On Broadway - World Long Gone tab

WORLD LONG GONE- Scars On Broadway
Acoustic version by sinForge xJp

This IS NOT based on a recording/performance!!

Standard Tuning, Capo 4


e|-------------------------------------------------|
B|-------------------------------------------------|
G|----2--------------------------------------------|
D|-2-----2--3--0--2-----0-----------------0--------|
A|-------------------3-----2--3--0--2--3-----3--2--|
E|-------------------------------------------------| x4


Am                                G
Sometimes, I said sometimes, I go crazy like I'm crazy
         Am                                    G
It takes patience, lots of patience, then it's over, fucking over


e|----------------------------------|----------------------------------|
B|----------------------------------|----------------------------------|
G|-2-------2-------2-------2--------|-0-------0-------0-------0--------|
D|-----2-------2-------2-------2----|-----0-------0-------0-------0----|
A|---0---0---0---0---0---0---0---0--|----------------------------------|
E|----------------------------------|---3---3---3---3---3---3---3---3--| x2
               I   look   at  the    sky..           faded.. 
               I   reach       the    stars..


F               Am                       G      
..Maybe I don't know how many people are starving
        F     E    Am
In this world long gone


e|-------------------------------------------------|
B|-------------------------------------------------|
G|----2--------------------------------------------|
D|-2-----2--3--0--2-----0-----------------0--------|
A|-------------------3-----2--3--0--2--3-----3--2--|
E|-------------------------------------------------| x4


Am                                G
Sometimes, I said sometimes, I go crazy like I'm crazy
         Am                                    G
It takes patience, lots of patience, then it's over, fucking over


e|----------------------------------|----------------------------------|
B|----------------------------------|----------------------------------|
G|-2-------2-------2-------2--------|-0-------0-------0-------0--------|
D|-----2-------2-------2-------2----|-----0-------0-------0-------0----|
A|---0---0---0---0---0---0---0---0--|----------------------------------|
E|----------------------------------|---3---3---3---3---3---3---3---3--| x2
               I   look    at  the    sky..           faded.. 
               I   reach       the    stars..



F               Am                       G        F
..Maybe I don't know how many people are starving..
              Am                       G
Maybe I don't know how many people are starving
        F     E    Am
In this world long gone


e|-------------------------------------------------|
B|-------------------------------------------------|
G|----2--------------------------------------------|
D|-2-----2--3--0--2-----0-----------------0--------|
A|-------------------3-----2--3--0--2--3-----3--2--|
E|-------------------------------------------------| x3

e|-------------------------------------------------|
B|-------------------------------------------------|
G|-------------------------------------------------|
D|----------------------------0--------0--2-----0--|
A|----0-----0--2--3--0--2--3-----2--3--------3-----|
E|-0-----0-----------------------------------------|

e|----------------------------------------------------|
B|-------------------------------------0--1--0--------|
G|----------------0--------0--2--0--2-----------2--0--|
D|-2--3--0--2--3-----2--3-----------------------------|
A|----------------------------------------------------|
E|----------------------------------------------------|


e|----------------------------------|----------------------------------|
B|----------------------------------|----------------------------------|
G|-2-------2-------2-------2--------|-0-------0-------0-------0--------|
D|-----2-------2-------2-------2----|-----0-------0-------0-------0----|
A|---0---0---0---0---0---0---0---0--|----------------------------------|
E|----------------------------------|---3---3---3---3---3---3---3---3--| x2
               I   look    at  the    sky..           faded.. 
               I   reach       the    stars..


F               Am                       G        F
..Maybe I don't know how many people are starving..
              Am                       G
Maybe I don't know how many people are starving
        F     E    Am
In this world long gone

e|-------------------------------------------------|
B|-------------------------------------------------|
G|----2--------------------------------------------|
D|-2-----2--3--0--2-----0-----------------0--------|
A|-------------------3-----2--3--0--2--3-----3--2--|
E|-------------------------------------------------| x3

e|-------------------------------------------------|
B|-------------------------------------------------|
G|-------------------------------------------------|
D|----------------------------0--------0--2-----0--|
A|----0-----0--2--3--0--2--3-----2--3--------3-----|
E|-0-----0-----------------------------------------|

e|----------------------------------------------------|--------|
B|-------------------------------------0--1--0--------|--------|
G|----------------0--------0--2--0--2-----------2--0--|--2-----|
D|-2--3--0--2--3-----2--3-----------------------------|--2-----|
A|----------------------------------------------------|--0-----|
E|----------------------------------------------------|--------|
Tap to rate this tab
# A B C D E F G H I J K L M N O P Q R S T U V W X Y Z