Song name
# A B C D E F G H I J K L M N O P Q R S T U V W X Y Z

Scars On Broadway - Shit tab

-------------------------------------------------------------------------------
			     Shit (Intro) - Scars On Broadway
-------------------------------------------------------------------------------
Tabbed by: felipe (smoogasaur)
Email: mudsmoogle@gmail.com

k. here's just the intro. i know nobody likes tabs that are just the intro but 
this is all i have so far.
but don't worry, i'll continue to tab this out next weekend. or i'll try.

Tuning: C# G# C# F# A# D#

Rhythm Guitar:

d#|-----------------------------------------------------------------------| Play this through
a#|-----------------------------------------------------------------------| the intro
f#|-----------------------------------------------------------------------| And until chorus/verse
c#|-----------------------------------------------------------------------|or whatever it is
g#|-----------------------------------------------------------------------|
c#|--5-5-5-5-5-5-5-5-3-3-3-3-3-3-3-3-2-2-2-2-2-2-2-2-0-0-0-0-0-0-0-0------| Slight palm mute
--PM------------------------------------------------------------------


Lead Guitar:

d#|--5-------------------------5----------------------------------------------| Play this
a#|----6-------------------------6--------------------------------------------|second time
f#|------7-------------------------7------------------------------------------|through
c#|--------8----7----5----3----------8----7----5--5\7/5--3--------------------|after rhythm
g#----------------------------------------------------------------------------|plays the '0'
c#|---------------------------------------------------------------------------|5 times



************************************

| /   slide up
| \   slide down
| h   hammer-on
| p   pull-off
| ~   vibrato
| +   harmonic
| x   Mute note
| b   Bend
| pb  Pre-bend
| br  Bend release
| pbr Pre-bend release
| brb Bend release bend

************************************
Tap to rate this tab
 
# A B C D E F G H I J K L M N O P Q R S T U V W X Y Z