Song name
# A B C D E F G H I J K L M N O P Q R S T U V W X Y Z

Scars On Broadway - Fucking tab

-------------------------------------------------------------------------------
	 Fucking - Scars on Broadway
-------------------------------------------------------------------------------
Tabbed by: Erik Heffner

Email: erikandpaistecymbalsmakesgood@hotmail.com

Tuning: DROP Db (C#)

Intro (I am not typing how many times, I think you can figure it out)

Db|---------------------------------------------------------|
Ab|---------------------------------------------------------|
Db|---------------------------------------------------------|
Gb|--13--12--13--12--13--12--13--12--13--12--13--12...------|
Bb|---------------------------------------------------------|
Eb|---------------------------------------------------------|

2nd Guitar
Db|---------------------------------------------------------|
Ab|---------------------------------------------------------|
Db|--15--14--15--14--15--14--15--14--15--14--15--14...------|
Gb|---------------------------------------------------------|
Bb|---------------------------------------------------------|
Eb|---------------------------------------------------------|

Pre-verse (fast strums)
Db|------------------------------------------------------------|
Ab|------------------------------------------------------------|
Db|------------------------------------------------------------|	x2
Gb|--13-13-13-13-13--------13-13-13-13-13-13-13-13-13-13-------|
Bb|--13-13-13-13-13--x2----13-13-13-13-13-13-13-13-13-13--x1---|
Eb|--13-13-13-13-13--------13-13-13-13-13-13-13-13-13-13-------|

Verse (not typing how many times again, easy to figure out...)
Db|---------------------------------------------------------------|
Ab|---------------------------------------------------------------|    
Db|-------------------------------------------15-14-15-14-15-14...|   <---"comes on once, comes on
Gb|---13-12-13-12-13-12-13-12...----------------------------------| twice, keep that pose,
Bb|---13-12-13-12-13-12-13-12...----------------------------------| it looks real nice"
Eb|---13-12-13-12-13-12-13-12...----------------------------------|

Chorus
Db|-----------------------------------------------|
Ab|-----------------------------------------------|
Db|--8-8-8-8-8-------8-8-8-8-8-8-8-8-8-8----------|   x2
Gb|--8-8-8-8-8--x2---8-8-8-8-8-8-8-8-8-8--x1------|
Bb|--6-6-6-6-6-------6-6-6-6-6-6-6-6-6-6----------|
Eb|-----------------------------------------------|



Back to Verse



Then Chorus again...




Bridge:

Db|------------------------------------------------|
Ab|------------------------------------------------|
Db|------------------------------------------------|
Gb|--7-7\8-8-8-8-8-8--------4-4-4-4-4-4-4----------|  x2
Bb|--7-7\8-8-8-8-8-8--x3----4-4-4-4-4-4-4---x1-----|
Eb|--7-7\8-8-8-8-8-8--------4-4-4-4-4-4-4----------|



Back to Verse




Then the Chorus again




Finally come back to the bridge one last time.




Ending: (fast strums)

Db|--------------------------------------------------------------------------------|
Ab|--------------------------------------------------------------------------------|
Db|--------------------------------------------------------------------------------|
Gb|--7\8-8-8-8-8-8-8-8-8-8-8-8-8-8-8-8-8-8-8---------4-4-4-4-4-4-4-4-4-4-4-4-------|  x2
Bb|--7\8-8-8-8-8-8-8-8-8-8-8-8-8-8-8-8-8-8-8--x2-----4-4-4-4-4-4-4-4-4-4-4-4---x1--|
Eb|--7\8-8-8-8-8-8-8-8-8-8-8-8-8-8-8-8-8-8-8---------4-4-4-4-4-4-4-4-4-4-4-4-------|
					                                  (Armmageddon come alive)






************************************

| /   slide up
| \   slide down
| h   hammer-on
| p   pull-off
| ~   vibrato
| +   harmonic
| x   Mute note
| b   Bend
| pb  Pre-bend
| br  Bend release
| pbr Pre-bend release
| brb Bend release bend

************************************
Tap to rate this tab
 
# A B C D E F G H I J K L M N O P Q R S T U V W X Y Z