Scars On Broadway - Hungry Ghost tab

This is a song that Scars only released in the japanese edition of the album.
It's my first tab so don't be mean!

Drop C

Intro:
|--------------------------------------|
|7--8--10--8--8--7--11--10--8--8--7--7-|
|-7--7---7--7--7--7---7---7--7--7----7-|
|--7--7---7------------7---7---------7-|
|--------------------------------------|
|--------------------------------------|

Verse:

|------------------|
|------------------|
|------------------|
|-----0--0--0------|
|----0--0--0--0--0-|
|0--8--7--5--3--0--|

Chorus:

|-----------------------------------------------------------------|
|-----------------------------------------------------------------|
|-----------------------------------------------------------------|
|---------------------------------0--0--0-----0-----0--0--0-----0-|
|--------------------------------0--0--0--0--0-----0--0--0--0--0--|
|10--10-10-10-8--8-12-10-8--10--7--5--3--2--0--0--7--5--3--2--0---|

Solo/Bridge:

|--------------------------------------|
|7--8--10--8--8--7--11--10--8--8--7--7-|
|-7--7---7--7--7--7---7---7--7--7----7-|
|--7--7---7------------7---7---------7-|
|--------------------------------------|
|--------------------------------------|

|----------------------------------------------------------------------------|
|7--8--10--8--8--7--11--10--8--8--7--7--7--8--8/13--13-13-13-11--11-15-13-11-|
|-7--7---7--7--7--7---7---7--7--7--7--7--------------------------------------|
|--7--7---7------------7---7-------------------------------------------------|
|----------------------------------------------------------------------------|
|----------------------------------------------------------------------------|

-13-10--9--9--10--9--9---|
-------------------------|
------9--9--9---9--9--9--|
-------9--9------9--9----|
-------------------------|
-------------------------|

|----------------------------------------------------|
|13--13-13-13-11--11-15-13-11--13-10--9--9--10--9--9-|
|-----------------------------------9--9--9---9--9--9|
|------------------------------------9--9------9--9--|
|----------------------------------------------------|
|----------------------------------------------------|

Outro:

|----------------------|
|7---8---9-9--8---8--7-|
|---7---7-7-----7----7-|
|--------------------7-|
|----------------------|
|----------------------|

Order:

Intro 4x
Verse 4x
Chorus 2x
Verse 4x
Chorus 2x
Verse 4x
Solo 2x
Verse 4x
Chorus 2x
Solo 2x
Intro 2x
Outro 1x

Corrections, question, etc:

fahrraddach@yahoo.de




Thanks
Tap to rate this tab
 
# A B C D E F G H I J K L M N O P Q R S T U V W X Y Z