Song name
# A B C D E F G H I J K L M N O P Q R S T U V W X Y Z

Scars On Broadway - They Say tab

Hey this is my first tab ever! I was listening this song for a long while and got most
of it down! Most tabs I see are in Drop C. But you don't HAVE to tune it that way!I know
this tab isn't 100% correct but it helps if you don't know or want to tune it to Drop C! 
It is a beginner song, but it sounds really awesome! And this best thing is that it's
VERY easy!


INTRO

   1  2   1,2,3,4  <-------------------------------------------------| (Play to this beat)
e|-------------------------------------------------------------------|
B|-------------------------------------------------------------------|
G|-------------------------------------------------------------------|
D|-------------------------------------------------------------------|   x2
A|-----------------9-9--9-9-9-9---7-7--7-7-7-7---6-6--6-6-6-6--------|
E|-9-9---9-9-9-9-----------------------------------------------------|


DRUMS COME IN

    1  2       1,2,3,4
e|--------------------------------------------------|
B|--------------------------------------------------|
G|---------------------------11-11----11-11-11-11---|
D|--11-11----11-11-11-11-----11-11----11-11-11-11---|
A|--11-11----11-11-11-11-----9--9-----9--9--9--9----|
E|--9--9-----9--9--9--9-----------------------------|
                                                          x2
e|--------------------------------------------------|
B|--------------------------------------------------|
G|--9-9---9-9-9-9----8-8---8-8-8-8------------------|
D|--9-9---9-9-9-9----8-8---8-8-8-8------------------|
A|--7-7---7-7-7-7----6-6---6-6-6-6------------------|
E|--------------------------------------------------|



VERSE

    1  2       1,2,3,4
e|---------------------------------------------------|
B|---------------------------------------------------|
G|---------------------------11-11----11-11-11-11----|
D|--11-11----11-11-11-11-----11-11----11-11-11-11----|
A|--11-11----11-11-11-11-----9--9-----9--9--9--9-----|
E|--9--9-----9--9--9--9------------------------------|
                                                       x2
e|---------------------------------------------------|
B|---------------------------------------------------|
G|--9-9---9-9-9-9----8-8---8-8-8-8-------------------|
D|--9-9---9-9-9-9----8-8---8-8-8-8-------------------|
A|--7-7---7-7-7-7----6-6---6-6-6-6-------------------|
E|---------------------------------------------------|


PRE-CHORUS

        1,2,3,4,5,6,7,8  {16 notes}
e|---------------------------------------------------|
B|---------------------------------------------------|
G|--9-9-9-9-9-9-9-9-9-9-9-9-9-9-9-9------------------|
D|--9-9-9-9-9-9-9-9-9-9-9-9-9-9-9-9------------------|
A|--7-7-7-7-7-7-7-7-7-7-7-7-7-7-7-7------------------|
E|---------------------------------------------------|
                                                        x2
e|---------------------------------------------------|
B|---------------------------------------------------|
G|--13-13-13-13-13-13-13-13-13-13-13-13-13-13-13-13--|
D|--13-13-13-13-13-13-13-13-13-13-13-13-13-13-13-13--|
A|--11-11-11-11-11-11-11-11-11-11-11-11-11-11-11-11--|
E|---------------------------------------------------|


CHORUS

Guitar 1

    1,2,3,4 1,2,3,4 1,2,3,4 1,2,3,4
e|----------------------------------------------------|
B|--5~5~5~5~5~5~5~5~5~5~5~5~5~5~5~5-------------------|
G|----------------------------------------------------|
D|----------------------------------------------------|   x2
A|----------------------------------------------------|
E|----------------------------------------------------|

Guitar 2

    1  2       1,2,3,4
e|--------------------------------------------------|
B|--------------------------------------------------|
G|---------------------------11-11----11-11-11-11---|
D|--11-11----11-11-11-11-----11-11----11-11-11-11---|
A|--11-11----11-11-11-11-----9--9-----9--9--9--9----|
E|--9--9-----9--9--9--9-----------------------------|
                                                          x2
e|--------------------------------------------------|
B|--------------------------------------------------|
G|--9-9---9-9-9-9----8-8---8-8-8-8------------------|
D|--9-9---9-9-9-9----8-8---8-8-8-8------------------|
A|--7-7---7-7-7-7----6-6---6-6-6-6------------------|
E|--------------------------------------------------|

[VERSE]
[PRE-CHORUS]
[Chorus]

OUTRO

Guitar 1

    1,2,3,4 1,2,3,4 1,2,3,4 1,2,3,4
e|----------------------------------------------------|
B|--9~9~9~9~9~9~9~9~9~9~9~9~9~9~9~9-------------------|
G|----------------------------------------------------|
D|----------------------------------------------------|
A|----------------------------------------------------|
E|----------------------------------------------------|

Guitar 2

    1  2       1,2,3,4
e|--------------------------------------------------|
B|--------------------------------------------------|
G|---------------------------11-11----11-11-11-11---|
D|--11-11----11-11-11-11-----11-11----11-11-11-11---|
A|--11-11----11-11-11-11-----9--9-----9--9--9--9----|
E|--9--9-----9--9--9--9-----------------------------|

e|--------------------------------------------------|
B|--------------------------------------------------|
G|--9-9---9-9-9-9----8-8---8-8-8-8------------------|
D|--9-9---9-9-9-9----8-8---8-8-8-8------------------|
A|--7-7---7-7-7-7----6-6---6-6-6-6------------------|
E|--------------------------------------------------|

Play until it fades or end with

e|----------|
B|----------|
G|----------|
D|--11------|
A|--11------|
E|--9-------|

                       ~ = bend string slightly

I hope this helps you learn it! I don't EXACTLY know what Guitar 1 does in the chorus,
but that's my guess!
Add me on facebook! (Jesus Garcia)
Subscribe to me on youtube! [Kidcalledjesus]
Email me {jgkid9@gmail.com}
If you find a mistake!
Plz rate!
Thank you (:
Tap to rate this tab
 
# A B C D E F G H I J K L M N O P Q R S T U V W X Y Z