Song name
# A B C D E F G H I J K L M N O P Q R S T U V W X Y Z

Scars On Broadway - Guns Are Loaded tab

Artist: Scars On Broadway
Album: upcoming EP/album
Song: Guns Are Loaded (performed live at the Epicenter Festival on 2012-09-22)
Tuning: Drop C#
Tabbed by: Chili_Pat

Typical and catchy Scars On Broadway song. Clean and distorted guitar parts, with much highs, some 
boosted bass and a normal amount of mids. Repeat the stuff as much as necessary.

Verse 1:
D#|-------------------------------------------------------------------------|
Bb|-------------------------------------------------------------------------|
F#|-------------------------------------------------------------------------|
C#|----3-5-----3-2-----2---3---2--------------------------------------------|
G#|-----------------0~---0---0---0------------------------------------------|
C#|-0~------3~--------------------------------------------------------------|

Chorus:
D#|-------------------------------------------------------------------------|
Bb|-------------------------------------------------------------------------|
F#|-------------------------------------------------------------------------|
C#|-0-0------------0-0----------0-0-----------------------------------------|
G#|-0-0------------0-0-------7--0-0--------7-8/12\8-7-0-8-7-0-8-7-0---------|
C#|-0-0--10-12-12--0-0--9-10----0-0--10-12----------------------------------|

Break (between Chorus parts:
D#|-------------------------------------------------------------------------|
Bb|-------------------------------------------------------------------------|
F#|-------------------------------------------------------------------------|
C#|-8~--10~-----------------------------------------------------------------|
G#|-8~--10~-----------------------------------------------------------------|
C#|-8~--10~-----------------------------------------------------------------|

Verse 2:
D#|-------------------------------------------------------------------------|
Bb|-------------------------------------------------------------------------|
F#|-----------------2~-2-2-2-2-2-2------------------------------------------|
C#|-0~-0-0--3~-3-3--2~-2-2-2-2-2-2------------------------------------------|
G#|-0~-0-0--3~-3-3--0~-0-0-0-0-0-0------------------------------------------|
C#|-0~-0-0--3~-3-3----------------------------------------------------------|

Listen to the live version and you will find out about the order of the parts and so on. 
Have fun and let's look together forward to the new Scars records!
Tap to rate this tab
 
# A B C D E F G H I J K L M N O P Q R S T U V W X Y Z