Song name
# A B C D E F G H I J K L M N O P Q R S T U V W X Y Z

Scars On Broadway - Sickening Wars tab

Artist: Scars On Broadway
Album: upcoming EP/album
Song: Sickening Wars (performed live at the Epicenter Festival on 2012-09-22)
Tuning: Drop C#
Tabbed by: Chili_Pat
PM = palm muting

Typical and catchy Scars On Broadway song. Only distorted guitar, with much highs, some 
boosted bass and a normal amount of mids. Repeat the stuff as much as necessary.

Intro:
D#|-------------------------------------------------------------------------|
Bb|-------------------------------------------------------------------------|
F#|-------------------------------------------------------------------------|
C#|-0-0-0-0-0-0--1~---------------------------------------------------------|
G#|-0-0-0-0-0-0--1~---------------------------------------------------------|
C#|-0-0-0-0-0-0--1~---------------------------------------------------------|
PM|-*-*-*-*-*-*-------------------------------------------------------------|

Verse 1:
D#|-------------------------------------------------------------------------|
Bb|-------------------------------------------------------------------------|
F#|-------------------------------------------------------------------------|
C#|-------------------------------------------------------------------------|
G#|-------------------------------------------------------------------------|
C#|-6~--0~------------------------------------------------------------------|

Chorus:
D#|-------------------------------------------------------------------------|
Bb|-------------------------------------------------------------------------|
F#|-7-7-7-7-----------8-8-8-8-----------------------------------------------|
C#|-7-7-7-7--8-8-8-8--8-8-8-8--7-7-7-7--------------------------------------|
G#|-5-5-5-5--8-8-8-8--6-6-6-6--7-7-7-7--------------------------------------|
C#|----------8-8-8-8-----------7-7-7-7--------------------------------------|

Verse 2:
D#|-------------------------------------------------------------------------|
Bb|-------------------------------------------------------------------------|
F#|-------------------------------------------------------------------------|
C#|-6-6-6-6-6-6-6-6--0-0-0-0-0-0-0-0----------------------------------------|
G#|-6-6-6-6-6-6-6-6--0-0-0-0-0-0-0-0----------------------------------------|
C#|-6-6-6-6-6-6-6-6--0-0-0-0-0-0-0-0----------------------------------------|
PM|--------------------*-*-*-*-*-*-*----------------------------------------|

Bridge Part 1:
D#|-------------------------------------------------------------------------|
Bb|-------------------------------------------------------------------------|
F#|-------------------------------------------------------------------------|
C#--------------------------------------------------------------------------|
G#|--------------6~---------------------------------------------------------|
C#|-0-0-0-0-0-0-------------------------------------------------------------|

Bridge Part 2:
D#|-------------------------------------------------------------------------|
Bb|-------------------------------------------------------------------------|
F#|-------------------------------------------------------------------------|
C#|-0-0-0-0-0-0--1~---------------------------------------------------------|
G#|-0-0-0-0-0-0--1~---------------------------------------------------------|
C#|-0-0-0-0-0-0--1~---------------------------------------------------------|
PM|-*-*-*-*-*-*-------------------------------------------------------------|

Listen to the live version and you will find out about the order of the parts and so on. 
Have fun and let's look together forward to the new Scars records!
Tap to rate this tab
# A B C D E F G H I J K L M N O P Q R S T U V W X Y Z