Guitaretab - guitar tabs
Song name
# A B C D E F G H I J K L M N O P Q R S T U V W X Y Z

Scary Kids Scaring Kids - Star Crossed tab

e|----------------------------------------------------------0--------------0-|
B|---------0----------0-----------0-----------0------------------------------|
G|---------------------------------------------------------------------------|
D|----6----------6-----------6-----------6-----------11------------11--------|
A|------6----------6-----------6-----------6------------11------------11-----|
E|-4----------6----------7-----------9-----------12------------12------------|
[ Tab from: http://www.guitaretab.com/s/scary-kids-scaring-kids/100340.html ]
e|-------------0-------------------------------------------------------------|
B|-----------------------------------------0----------0----------0----------0|
G|-----------------8-9-8-6-4-------------------------------------------------|
D|-----11--------------------6--------6----------6----------6----------6-----|
A|--------11----------------------------6----------6----------6----------6---|
E|-12------------------------------4----------6----------7----------9--------|

e|-------------0-------------0--------------0--------------------------------|
B|---------------------------------------------------------------------------|
G|---------------------------------------------------------------------------|
D|------11------------11------------11---------------------------------------|
A|---------11------------11------------11------------------------------------|
E|--12------------12------------12--------------11---------------------------|


Related for Star Crossed tab