Song name
# A B C D E F G H I J K L M N O P Q R S T U V W X Y Z

Scary Kids Scaring Kids - A Pistol To My Temple tab

Intro:
-----------------------------------------------4-|
-------------------------------------------5-7---|
---6--------------4-6--6---------------4-6-------|
------4-6-----6-4----------4-6---6-4-6-----------|
----4-----4-6------------4-----4-----------------|
-------------------------------------------------|

----------------------      ----                     ---------|
----------------------      ----                     ---------|
---6--------------4-6-      ---- (2nd and 6th) time) -----4-6-|
------4-6-----6-4----- x7   ----                     -6-4-----| (4th time)
----4-----4-6---------      -4-6                     ---------|
----------------------      ----                     ---------|

-------------------------|
--9--7--5--7--9--7--5----|
--9--8--6--8--9--8--6----|
-------------------------|
-------------------------|
-------------------------|
Tap to rate this tab
# A B C D E F G H I J K L M N O P Q R S T U V W X Y Z