Song name
# A B C D E F G H I J K L M N O P Q R S T U V W X Y Z

Scary Kids Scaring Kids - Free Again tab

-------------------------------------------------------------------------------
			     FREE AGAIN - Scary Kids Scaring Kids
-------------------------------------------------------------------------------
Tabbed by: jameskr3w
Email: baker3bueno@hotmail.com

Tuning: Standard

e|--------------------------------------------------------6--------------7---|
B|----------------------------------------------4-------4------6-------6-----|
G|--10-11-10-8-11-10-8---10-11-10-8-11-10-8---4---4-1-4------7---7-3-7-------|
D|---------------------------------------------------------------------------|
A|---------------------------------------------------------------------------|
E|---------------------------------------------------------------------------|

e|--------------------------------------------------------6------------------|
B|----------------------------------------------4-------4------6-------6-----|
G|--10-11-10-8-11-10-8---10-11-10-8-11-10-8---4---4-1-4------7---7-3-7-------|
D|---------------------------------------------------------------------------|
A|---------------------------------------------------------------------------|
E|---------------------------------------------------------------------------|

| /  slide up
| \  slide down
| h  hammer-on
| p  pull-off
| ~  vibrato
| +  harmonic
| x  Mute note
===============================================================================
Tap to rate this tab
# A B C D E F G H I J K L M N O P Q R S T U V W X Y Z