Song name
# A B C D E F G H I J K L M N O P Q R S T U V W X Y Z

Scary Kids Scaring Kids - Star Crossed tab

-------------------------------------------------------------------------------
			     Star Crossed - Scary Kids Scaring Kids
-------------------------------------------------------------------------------
Tabbed by:Bryce
Email:bryc3p@gmail.com

Tuning:

e|---------------------------------------------------------------------------|
B|-------------0----------------0---------------0------------------0---------|
G|--------------------------------------------------------------------------|
D|-------6---------------6---------------6----------------6------------------|
A|---------6---------------6---------------6-----------4-----6--------------|
E|---4-------------6-----------------7--------------------------------------|

e|---------------------------------------------------------------------------|
B|---------------------------------------------------------------------------|
G|------------------8----------------------8-------------------8-------------|
D|----------9---------------------9-------------------9----------------------|
A|-----7--------7-----------7----------7--------7----------7-----------------|
E|---------------------------------------------------------------------------|

e|---------------------------------------------------------------------------|
B|------------4--------------------------------------------------------------|
G|---------3----3------------------------------------------------------------|
D|------5---------5----------------------------------------------------------|
A|---6-----------------------------------------------------------------------|
E|---------------------------------------------------------------------------|

Then Repeat Again But Don't Play The Last Sweep, That's Where The Sick Bass Line Goes.


| /  slide up
| \  slide down
| h  hammer-on
| p  pull-off
| ~  vibrato
| +  harmonic
| x  Mute note
===============================================================================
Tap to rate this tab
 
# A B C D E F G H I J K L M N O P Q R S T U V W X Y Z