Song name
# A B C D E F G H I J K L M N O P Q R S T U V W X Y Z

Scary Kids Scaring Kids - Drowning You In Fear tab

Drowning You In Fear Tab
By: Scary Kids Scaring Kids
Album: The City Sleeps In Flames
Tuning: Dropped D

Is is a very good song, i find it very touching, anyways please please Please 
comment and rate but most importantly ENJOY :P

Intro:
Lead Guitar:
e[-------------------------------------------------------------------------]
B[-3-4-5-7-6-5-8---3-4-5-7-6-5-8---3-4-5-7-6-5-8---------------------------]
G[-------------------------------------------------------------------------]
D[-------------------------------------------------------------------------]
A[-------------------------------------------------------------------------]
D[-------------------------------------------------------------------------]


Verse:
Lead Guitar:                                         [Repeats over and over]
e[---------5-6-7-8-9-------------------------------------------------------]
B[-5-6-7-8-----------------------------------------------------------------]
G[-------------------------------------------------------------------------]
D[-------------------------------------------------------------------------]
A[-------------------------------------------------------------------------]
D[-------------------------------------------------------------------------]

Verse:
Rhythm Guitar:                                      [Repeats over and over]
e[-------------------------------------------------------------------------]
B[-------------------------------------------------------------------------]
G[-------------------------------------------------------------------------]
D[-44444-------------------------------------------------------------------]
A[-44444-------------------------------------------------------------------]
D[-44444-------------------------------------------------------------------]


Pre Chorus:
Lead Guitar:
e[-------------------------------------------------------------------------]
B[-6-5-7-5-8-5-9-5-8-5-7-5-6-5-7-5-8-5-9-10--------------------------------]
G[-------------------------------------------------------------------------]
D[-------------------------------------------------------------------------]
A[-------------------------------------------------------------------------]
D[-------------------------------------------------------------------------]
 [Pretty Fast]


Chorus 1:
Both Guitars:
e[-------------------------------------------------------------------------]
B[-------------------------------------------------------------------------]
G[-----------------------666---888-----------------------------------------]
D[-44444444--6666666666--666---888-----------------------------------------]
A[-44444444--6666666666--444---666-----------------------------------------]
D[-44444444--6666666666---------------------------------------------------]


Pre Verse:
Lead Guitar:
e[-------------------------------------------------------------------------]
B[-6-5-7-5-8-5-9-5-8-5-7-8-9-----------------------------------------------]
G[-------------------------------------------------------------------------]
D[-------------------------------------------------------------------------]
A[-------------------------------------------------------------------------]
D[-------------------------------------------------------------------------]
 [Pretty Fast]

[Repeat Verse]
[Then instead of Pre Chorus you'll play the Pre Verse]


Chorus 2:
Both Guitars:
e[-------------------------------------------------------------------------]
B[-------------------------------------------------------------------------]
G[-----------------------666---888-----------------------------------------]
D[-44444444--6666666666--666---888-----------------------------------------]
A[-44444444--6666666666--444---666-----------------------------------------]
D[-44444444--6666666666----------------------------------------------------]

Then...

Chorus 2: [cont'd]
Lead Guitar:
e[-------------------------------------------------------------------------]
B[-6-7-9-8-7-8-9/12--------------------------------------------------------]
G[-------------------------------------------------------------------------]
D[-------------------------------------------------------------------------]
A[-------------------------------------------------------------------------]
D[-------------------------------------------------------------------------]


Chorus 1: [cont'd]
Both Guitars:
e[-------------------------------------------------------------------------]
B[-------------------------------------------------------------------------]
G[-----------------------666---888-----------------------------------------]
D[-44444444--6666666666--666---888-----------------------------------------]
A[-44444444--6666666666--444---666-----------------------------------------]
D[-44444444--6666666666----------------------------------------------------]

The bridge starts w/ the keyboard but the fades to this...

Bridge:
Lead Guitar:                                         [Repeats over and over]
e[-------------------------------------------------------------------------]
B[-3-4-5-7-6-5-8-9-12-9-8-7-6-5-6-7-8-9------------------------------------]
G[-------------------------------------------------------------------------]
D[-------------------------------------------------------------------------]
A[-------------------------------------------------------------------------]
D[-------------------------------------------------------------------------]
 [Pretty Fast]

And thats all that happens then the chorus 2 repeats and the lead plays this again...

Chorus 2: [cont'd]
Lead Guitar:
e[-------------------------------------------------------------------------]
B[-6-7-9-8-7-8-9/12--------------------------------------------------------]
G[-------------------------------------------------------------------------]
D[-------------------------------------------------------------------------]
A[-------------------------------------------------------------------------]
D[-------------------------------------------------------------------------]


Outro: 
Both Guitars:
e[-------------------------------------------------------------------------]
B[-------------------------------------------------------------------------]
G[-------------------------------------------------------------------------]
D[-44444-44444-44444--44-4-4-----------------------------------------------]
A[-44444-44444-44444--44-4-4-----------------------------------------------]
D[-44444-44444-44444--44-4-4-----------------------------------------------]

Thats it i hoped it helped at least a little :)

Tap to rate this tab
 
# A B C D E F G H I J K L M N O P Q R S T U V W X Y Z