Song name
# A B C D E F G H I J K L M N O P Q R S T U V W X Y Z

Scary Kids Scaring Kids - Whats Up Now tab

Okay that s my very first tab and I haven't ever tabbed a song.
I' m about to tab the whole song and I hope it'll be finished  soon.
There are three guitars in this song but i think one guitar is enough for now ...

I hope it sounds good. Tell me if there is something wrong.

Have fun with my first tab :)

 Intro


  e|---------------------------------------------------|
  b|---------------------------------------------------|
  G|---------------------------------------------------|
  D|---9-9---9-9---9-9---9-9---9-9-10p9h10p9-----------|
  A|---9-9---9-9---9-9---9-9---9-9-10p9h10p9-----------|
  D|---9-9---9-9---9-9---9-9---9-9-10p9h10p9-----------|

  ---------------------------------------------------|
  ---------------------------------------------------|
  ---------------------------------------------------|
  ---7-7---7-7---7-7---7-7---7-7-8p7h8p7-------------|
  ---7-7---7-7---7-7---7-7---7-7-8p7h8p7-------------|
  ---7-7---7-7---7-7---7-7---7-7-8p7h8p7-------------|

  e|----------------------------------------------------|
  b|----------------------------------------------------|
  G|----------------------------------------------------|
  D|---9-9---9-9---9-9---9-9---9-9-10p9h10p9------------|
  A|---9-9---9-9---9-9---9-9---9-9-10p9h10p9------------|
  D|---9-9---9-9---9-9---9-9---9-9-10p9h10p9------------|

  ---------------------------------------------------|
  ---------------------------------------------------|
  ---------------------------------------------------|
  ---5-5---5-5---5-5---5-5---5-5-6p5h6p5-------------|
  ---5-5---5-5---5-5---5-5---5-5-6p5h6p5-------------|
  ---5-5---5-5---5-5---5-5---5-5-6p5h6p5-------------|


  Play that together 2x times


  And then:
  (i am not sure about this)

  e|--------------------------------------------------|
  b|--------------------------------------------------|
  G|---9--11--9---------------------------------------|
  D|-------------9--11--9--12p9--10p9--12p9-----------|   2x
  A|------------------------------------------1212----|
  D|--------------------------------------------------|
                                            (twelves)
Tap to rate this tab
 
# A B C D E F G H I J K L M N O P Q R S T U V W X Y Z