Song name
# A B C D E F G H I J K L M N O P Q R S T U V W X Y Z

Scary Kids Scaring Kids - Goes Without Saying chords

Highlighted       Show chord diagrams
e|-----------------------------------------------|
B|-----------------------------------------------|
G|---------------------------------------------4-|
D|-----------2--------2------2----------------2--|
A|-----0-3-0-----0-3----0-3----0-3-0----3--------|
E|--0----------------------------------4-4-------|
Small rest hereÖ
e|-----------------------------------------------|
B|-----------------------------------------------|
G|-----------------------------------------2-----|
D|----------0-----0------0----------------3------|
A|-------2-------2------2------2-----0-----------|
E|--0---3-3-----3------3------3---3-1-1----------|

Then repeat a couple times

am
We both know you want it, come and get it,
         c
What you waiting for?
em
Now youíre scared of what your seeing,
                     f
Only seen it in your dreams before.
am       
ĎCause when you least expect it,
                           c 
It will take you, take you by surprise.
em
So take advantage, take it all, 
                       f
Take it all before the moment dies.

CHORUS:
Dm                        f
   It goes without saying, itís already known
am
   Itís written all over you.
Dm                        f 
   It goes without saying, donít let it go
am                  G
   Just keep it inside of you.
Dm                  f (ring out)
   It goes without sayingÖ


e|-----------------------------------------------|
B|-----------------------------------------------|
G|---------------------------------------------4-|
D|-----------2--------2------2----------------2--|
A|-----0-3-0-----0-3----0-3----0-3-0----3--------|
E|--0----------------------------------4-4-------|
Small rest
e|-----------------------------------------------|
B|-----------------------------------------------|
G|-----------------------------------------2-----|
D|----------0-----0------0----------------3------|
A|-------2-------2------2------2-----0-----------|
E|--0---3-3-----3------3------3---3-1-1----------|


am
Now that youíve got it in,
                           c
Itís slipping through your fingertips.
em
You gave and let go;
                           f
Now itís missing from your life again.
am
So now youíre tearing up the walls,
                    c  
Make a mess, try to dig it up.
em
Well now itís all too late, youíll never find it
        f
And the momentís dead, the momentís dead.


CHORUS
Dm                        f
   It goes without saying, it's already gone.
am
   It's written all over you.
Dm                        f
   It goes without saying, you let it go, 
am                    G
   There's nothing inside of you.
Dm                    f (ring out)
   It goes without saying


Dm, f, am, am, Dm, f, am, G, Dm, f, am

f
We know you want it, 
             c
What are you waiting for? 
f                    am
 Take it all and the moment dies.

Dm, f, am, am, Dm, f, am, G, Dm, f, am


Dm, f, am, G

Dm    (strumming)            Am (ring out)
  It goes without saying
Tap to rate this tab
# A B C D E F G H I J K L M N O P Q R S T U V W X Y Z