Song name
# A B C D E F G H I J K L M N O P Q R S T U V W X Y Z

Scary Kids Scaring Kids - Blood Runs Forever tab

Hey, This is my first tab. its not complete its just the intro to the song. i haven't 
out the rest of it yet. its some tricky stuff to figure out by ear. but once i do i will 
it.

email me if you have any question or corrections or addition or whatever. ben.outland@gmail.com

|-------------------------------------------------------------|
|-------------------------------------6-h5-----------------6--|
|-----------------------------------5------h7-h5-------5-7----|
|--------------3-p0------------5-h7--------------h7-h5--------|
|-----5-5-3-h5-------3-h5-------------------------------------|
|-0-0----------------------0-0--------------------------------|

---------------------|
---------------------|
-7-7------5----------|
-----5-h7---7-p5-p0--|
---------------------|
---------------------|

This is alls ive figured out so far. hope it helped
Tap to rate this tab
# A B C D E F G H I J K L M N O P Q R S T U V W X Y Z