Song name
# A B C D E F G H I J K L M N O P Q R S T U V W X Y Z

Scary Kids Scaring Kids - World As We Know It tab

------------------------------------------------------------------------
     THE WORLD AS WE KNOW IT - Scary Kids Scaring Kids
------------------------------------------------------------------------
Tabbed by: Matt LeFevers
myspace.com/thisglassembrace

Tuning: Drop-D

Chords used for Guitar 2:
  Bb5: x133xx
  F5:  333xxx
  G5:  555xxx
  D5:  000xxx
  C5:  x355xx

 INTRO:
E|-------------------------------------------------------------|
B|-----10-10--8-8--10-10-8h10------10-10--8-8--10-8h10p8-------|
G|-----10-10--9-9--10-10-9h10------10-10--9-9--10--------10p9--|
D|-------------------------------------------------------------|
A|-0-0-------------------------0-0-----------------------------|
D|-0-0-------------------------0-0-----------------------------|

   Bb5
E|-----------------------------------------|
B|-10-10-8-8-------------------------------|
G|-----------10-10-9-9-10-10-9-9-------7-7-|
D|-------------------------------10-10-----|  4x
A|-----------------------------------------|
D|-----------------------------------------|


 VERSE: (2x total)
E|---------------------------------------------------------------------|
B|---------------------------------------------------------------------|
G|-----------2-2-2-----------------------------------------------------|
D|---------------------7-----7--7p5-----------7p5-5p3----------7p5-5h7-|
A|-1-1-1-1-1---------3---3-3-------------------------------------------|
D|-----------------------------------0-000-0-----------0-000-0---------|
   pm. . . . . . .   .   . .         . ... .           . ... .

E|---------------------------------------------------------------------|
B|---------------------------------------------------------------------|
G|-----------2-2-2-----------------------------------------------------|
D|---------------------7-----7--7h8-----------7p5-5p3---------10-10-10-|
A|-1-1-1-1-1---------3---3-3-------------------------------------------|
D|-----------------------------------0-000-0-----------0-000-0---------|
   pm. . . . . . .   .   . .         . ... .           . ... .


 PRECHORUS:
   F5               G5               D5
E|---------------------------------------------------------------------|
B|-6-6-6-6-5-5-5-5--8-8-8-8-5-5-5-5--10-10--10-10--10-10--8-8-8h10-----|
G|-5-5-5-5-5-5-5-5--5-5-5-5-5-5-5-5--10-10--10-10--10-10--9-9-----10-9-|
D|-3-3-3-3-3-3-3-3--5-5-5-5-5-5-5-5------------------------------------|
A|---------------------------------------------------------------------|
D|---------------------------------------------------------------------|
   "You'll be lucky if you make it out alive..."


 CHORUS:
    Bb5                     F5
E|-------------------------------------------|
B|--10-10-10-10-10-10-10-10-8-8-8-8-8-8-8-8--|
G|--10-10-10-10-10-10-10-10-9-9-9-9-9-9-9-9--|
D|-------------------------------------------|
A|-------------------------------------------|
D|-------------------------------------------|
    "Have we lost our minds..."

    D5
E|-------------------------------------------|
B|--10-10-10-10-10-10-10-10-8-8-8-8-8-8-8-8--|
G|--10-10-10-10-10-10-10-10-9-9-9-9-9-9-9-9--|
D|-------------------------------------------|
A|-------------------------------------------|
D|-------------------------------------------|

    Bb5                     F5
E|-------------------------------------------|
B|--10-10-10-10-10-10-10-10-8-8-8-8-8-8-8-8--|
G|--10-10-10-10-10-10-10-10-9-9-9-9-9-9-9-9--|
D|-------------------------------------------|
A|-------------------------------------------|
D|-------------------------------------------|

   D5
E|-----------------------------------------|
B|-10-10-8-8-------------------------------|
G|-----------10-10-9-9-10-10-9-9-------7-7-|
D|-------------------------------10-10-----|  2x
A|-----------------------------------------|
D|-----------------------------------------|


Back to VERSE
Back to PRECHORUS


 SECOND CHORUS:
    Bb5                     F5
E|-------------------------------------------|
B|--10-10-10-10-10-10-10-10-8-8-8-8-8-8-8-8--|
G|--10-10-10-10-10-10-10-10-9-9-9-9-9-9-9-9--|
D|-------------------------------------------|
A|-------------------------------------------|
D|-------------------------------------------|
    "Have we lost our minds..."

    D5
E|-------------------------------------------|
B|--10-10-10-10-10-10-10-10-8-8-8-8-8-8-8-8--|
G|--10-10-10-10-10-10-10-10-9-9-9-9-9-9-9-9--|
D|-------------------------------------------|
A|-------------------------------------------|
D|-------------------------------------------|

    Bb5                     F5
E|-------------------------------------------|
B|--10-10-10-10-10-10-10-10-8-8-8-8-8-8-8-8--|
G|--10-10-10-10-10-10-10-10-9-9-9-9-9-9-9-9--|
D|-------------------------------------------|
A|-------------------------------------------|
D|-------------------------------------------|

   D5        E5        F5        G5
E|-----------------------------------------|
B|-10-10-8-8-------------------------------|
G|-----------10-10-9-9-10-10-9-9-------7-7-|
D|-------------------------------10-10-----|
A|-----------------------------------------|
D|-----------------------------------------|

   Bb5                 C5
E|-----------------------------------------|
B|-10-10-8-8-------------------------------|
G|-----------10-10-9-9-10-10-9-9-------7-7-|
D|-------------------------------10-10-----|
A|-----------------------------------------|
D|-----------------------------------------|

 POST-CHORUS: hang on D5, drums do a snare roll


 BRIDGE:**
   D5                       C5
E|---------------------------------------------------|
B|---------------------------------------------------|
G|-10-10-10-10-10-10-10-10--14-14-14-14-14-14-14-14--|
D|-x--x--x--x--x--x--x--x---x--x--x--x--x--x--x--x---|
A|-8--8--8--8--8--8--8--8---12-12-12-12-12-12-12-12--|
D|---------------------------------------------------|
   "The water is rising and rising..."

   Bb5                     C5
E|----------------------------------------------------|
B|----------------------------------------------------|
G|-10-10-10-10-10-10-10-10-12-12-12-12--14-14--15-15--|
D|-x--x--x--x--x--x--x--x--x--x--x--x---x--x---x--x---|
A|-8--8--8--8--8--8--8--8--10-10-10-10--12-12--13-13--|
D|----------------------------------------------------|
 **there are twice as many of these octave-chords as I've written (they
   are 16th notes). I just ran out of room on the tab...


 BREAKDOWN: (2x total)
E|----------------------------------------------------------|
B|---------11-11--------11-11-------11-11----11-11---11-11--|
G|---------14-14--------14-14-------14-14----14-14---14-14--|
D|----------------------------------------------------------|
A|--0--000--------0--000------0--000-------0-------0--------|
D|--0--000--------0--000------0--000-------0-------0--------|
   pm  ...        .  ...      .  ...       .       .
   "Take it back..."


 OUTRO:** (3x total)
    D5                 C5
E|------------------------------------------|
B|------------------------------------------|
G|--7-7-7-7-9-9-10-10--9-9-9-9-10-10-12-12--|
D|--x-x-x-x-x-x-x--x---x-x-x-x-x--x--x--x---|
A|--5-5-5-5-7-7-8--8---7-7-7-7-8--8--10-10--|
D|------------------------------------------|

   Bb5                               C5
E|--------------------------------------------------------------------|
B|--------------------------------------------------------------------|
G|--12-12--12-12-12-12-14-14-12-12---12-12--12-12-12-12-14-14-12-12---|
D|--x--x---x--x--x--x--x--x--x--x----x--x---x--x--x--x--x--x--x--x----|
A|--10-10--10-10-10-10-12-12-10-10---10-10--10-10-10-10-12-12-10-10---|
D|--------------------------------------------------------------------|
 **there are twice as many of these octave-chords as I've written (they
   are 16th notes). I just ran out of room on the tab...


 INTRO RIFF REPRISE:
E|---------------------------------------------------------|
B|-----10-10--8-8--10-10-8h10------10-10--8-8--10-10-8h10--|
G|-----10-10--9-9--10-10-9h10------10-10--9-9--10-10-9h10--|
D|---------------------------------------------------------|
A|-0-0-------------------------0-0-------------------------|
D|-0-0-------------------------0-0-------------------------|
Tap to rate this tab
 
# A B C D E F G H I J K L M N O P Q R S T U V W X Y Z