Song name
# A B C D E F G H I J K L M N O P Q R S T U V W X Y Z

Scattered Trees - Four Days Straight tab

Tabbed this song from all the mixed music videos. sound pretty good to me.
I really don't know would effect they have going on but anything works.

all finger picking.
Into.
e|-----------------------------------------------------------------------------|
B|-----------------------------------------------------------------------------|
G|--4------10-10----9-----2----------------------------------------------------|
D|-----------------------------------------------------------------------------|
A|-----------------------------------------------------------------------------|
E|--3------10-10----8-----1----------------------------------------------------|
                                                                                         
                                              x.2

e|-----------------------------------------------------------------------------|
B|-----------------------------------------------------------------------------|
G|--4------10-10----9------2-2-2-----------------------------------------------|
D|-----------------------------------------------------------------------------|
A|-----------------------------------------------------------------------------|
E|--3------10-10----8------1-1-1-----------------------------------------------|

verse.
e|-----------------------------------------------------------------------------|
B|-----------------------------------------------------------------------------|
G|--44444444---10101010---9999-------------------------------------------------|
D|-----------------------------------------------------------------------------|
A|-----------------------------------------------------------------------------|
E|--33333333---10101010---8888-------------------------------------------------|
                                                                                         
                                                x4

chorus

e|-----------------------------------------------------------------------------|
B|-----------------------------------------------------------------------------|
G|---44---1010----55----99-------44----1010----55----99--9---------------------|
D|-----------------------------------------------------------------------------|
A|-----------------------------------------------------------------------------|
E|---33---1010----55----88-------33----1010----55----88--8---------------------|
                                                                                         
                                               x2
Then intro again
verse
&chours

Bridge
e|----------|
B|---4------|
G|----------|
D|----------|
A|----------|
E|---3------|
Just a strumming variation of verse
e|-----------------------------------------------------------------------------|
B|-----------------------------------------------------------------------------|
G|----44-444-----1010--99------------------------------------------------------|
D|-----------------------------------------------------------------------------|
A|-----------------------------------------------------------------------------|
E|----33-333-----1010--88------------------------------------------------------|
                                                                                         
                                               x4
chours
e|-----------------------------------------------------------------------------|
B|-----------------------------------------------------------------------------|
G|---44---1010----55----99-------44----1010----55----99--9---------------------|
D|-----------------------------------------------------------------------------|
A|-----------------------------------------------------------------------------|
E|---33---1010----55----88-------33----1010----55----88--8---------------------|
                                                                                         
                                               x2
outro
e|---------------------------------|
B|---------------------------------|
G|---4-------1010---9------2-------|
D|---------------------------------|
A|---------------------------------|
E|---3-------1010---8------1-------|

scatteredtreesmusic.com
Tap to rate this tab
 
# A B C D E F G H I J K L M N O P Q R S T U V W X Y Z