Song name
# A B C D E F G H I J K L M N O P Q R S T U V W X Y Z

Scatteredtrees - Sparrow tab

-------------------------------------------------------------------------------
			     Sparrow - scatteredtrees
-------------------------------------------------------------------------------
Tabbed by:scarecrow147
Artist:scatteredtrees
Song: Sparrow
Album: Off the Clock Vol. 1 
Tuning: Standard
Capo: 4th fret


Intro: (listen for strumming rhythm and for when parts 1 and 2 separate)

     Part 1: pick                    
e|----4~-------3-----6-----4~|
B|---------------------------|
G|--5------4-3---3-6---6-5---|
D|---------------------------|
A|---------------------------|
E|---------------------------|

     Part 2: Strum
e|---0--0--0--0---0--0-0-0---|
B|---0--0--0--0---0--0-1-3---|
G|---0--0--0--0---0--0-0-0---|
D|---0--2--2--2---2--2-2-2---|
A|---2--0--3--2---0--3-3-3---|
E|---3--0--0--0---0--0-0-0---|


Verse: (listen for rhythm and timing)

e|---0--0--0--0---0--0-0-0-0-|
B|---0--0--0--0---0--0-1-3-1-|
G|---0--0--0--0---0--0-0-0-0-|
D|---0--2--2--2---2--2-2-2-2-|
A|---2--0--3--2---0--3-3-3-3-|
E|---3--0--0--0---0--0-0-0-0-|

e|---0------------0-0-----------0--0-0-0--|
B|---0------------0-0-----------0--0-0-0--|
G|---0------------0-0-----------0--0-0-0--|
D|---0------------2-2-----------2--2-2-2--|
A|---2--------2---0-0---------2-0--0-3-2--|
E|---3--0-2-3---0-0-0-0-2-3-2---0--0-0-0--|

Play ^^^ twice then this once as a pre-chorus

e|---0--0--0--0--|
B|---0--0--0--0--|
G|---0--0--0--0--|
D|---0--2--2--2--|
A|---2--0--3--2--|
E|---3--0--0--0--|

Chorus:
                                   |--hold--| 
e|--0--0--0--0--0------0--0--0-0-0-0--------|
B|--0--0--0--0--0------0--0--0-0-0-0--------|
G|--0--0--0--0--0------0--0--0-0-0-0--------|
D|--2--2--0--2--2------2--2--2-0-2-2--------|
A|--3--3--2--0--2------3--3--3-2-2-0--------|
E|--0--0--3--0--0------0--0--0-3-0-0--------|
                                   |--------|

Order of the Song:

Intro
Verse
Pre-Chorus
Chorus
Intro
Verse
Pre-Chorus
Chorus
Chorus
***end on x3200x***

Again, listen for the timing and strumming pattern for the chords. 
Any corrections are welcomed, its hard to hear the guitar in the 
background but these sound good. Enjoy the only scatteredtrees 
tab so far.

Website: was up once idk what happened to it www.scatteredtrees.com
Tap to rate this tab
# A B C D E F G H I J K L M N O P Q R S T U V W X Y Z