Song name
# A B C D E F G H I J K L M N O P Q R S T U V W X Y Z

Schaeffers Train - Savor Your Life tab

Schaeffer's Train
Savor your life                                  
                                                          
Guitarra 1
     E  E  E  E  E  E  E  E     E  E  E  E  E  E  Q        
E||--------------------------|---------------------------||
B||--------------------------|---------------------------||
G||--------------------------|-------------------------*-||
D||--9--9--9--7--7--7--9--9--|--9-----------7--7--7----*-||
A||--7--7--7--5--5--5--7--7--|--7--7--7--7--5--5--5------||
E||--------------------------|-----5--5--5---------------||
 
 
  E  E  E  E  E  E  E  E     E  E  E  E  E  E  Q       E  E  E  E  E  E  E  E   
--------------------------|-------------------------|--------------------------|
--------------------------|-------------------------|--------------------------|
--------------------------|-------------------------|--------------------------|
--9--9--9--7--7--7--9--9--|--9-----------7--7--7----|--9--9--9--7--7--7--9--9--|
--7--7--7--5--5--5--7--7--|--7--7--7--7--5--5--5----|--7--7--7--5--5--5--7--7--|
--------------------------|-----5--5--5-------------|--------------------------|
 
 
  E  E  E  E  E  E  Q         E  E  E  E  E  E  E  E   
-------------------------||---------------------------|
-------------------------||---------------------------|
-------------------------||*--------------------------|
--9-----------7--7--7----||*--9--9--9--7--7--7--9--9--|
--7--7--7--7--5--5--5----||---7--7--7--5--5--5--7--7--|
-----5--5--5-------------||---------------------------|
 
 
  E  E  E  E  E  E  Q       E  E  E  E  E  E  E  E   
-------------------------|--------------------------|
-------------------------|--------------------------|
-------------------------|--------------------------|
--9-----------7--7--7----|--9--9--9--7--7--7--9--9--|
--7--7--7--7--5--5--5----|--7--7--7--5--5--5--7--7--|
-----5--5--5-------------|--------------------------|
 
 
                                PM PM PM PM PM PM PM PM  
  E  E  E  E  E  E  Q           E  E  E  E  E  E  E  E   
---------------------------||---------------------------|
---------------------------||---------------------------|
-------------------------*-||*--------------------------|
--9-----------7--7--7----*-||*--------------------------|
--7--7--7--7--5--5--5------||---7--7--7--5--5--5--7--7--|
-----5--5--5---------------||---------------------------|
 
 
  PM PM PM PM PM PM         PM PM PM PM PM PM PM PM    PM PM PM PM PM PM       
  E  E  E  E  E  E  Q       E  E  E  E  E  E  E  E     E  E  E  E  E  E  Q     
-------------------------|--------------------------|-------------------------|
-------------------------|--------------------------|-------------------------|
-------------------------|--------------------------|-------------------------|
-------------------------|--------------------------|-------------------------|
--7-----------5--5--5----|--7--7--7--5--5--5--7--7--|--7-----------5--5--5----|
-----5--5--5-------------|--------------------------|-----5--5--5-------------|
 
 
  PM PM PM PM PM PM PM PM    PM PM PM PM PM PM         PM PM PM PM PM PM PM PM  
  E  E  E  E  E  E  E  E     E  E  E  E  E  E  Q       E  E  E  E  E  E  E  E   
--------------------------|-------------------------|--------------------------|
--------------------------|-------------------------|--------------------------|
--------------------------|-------------------------|--------------------------|
--------------------------|-------------------------|--------------------------|
--7--7--7--5--5--5--7--7--|--7-----------5--5--5----|--7--7--7--5--5--5--7--7--|
--------------------------|-----5--5--5-------------|--------------------------|
 
 
  PM PM PM PM PM PM         PM PM PM PM PM PM PM PM    PM PM PM PM PM PM       
  E  E  E  E  E  E  Q       E  E  E  E  E  E  E  E     E  E  E  E  E  E  Q     
-------------------------|--------------------------|-------------------------|
-------------------------|--------------------------|-------------------------|
-------------------------|--------------------------|-------------------------|
-------------------------|--9--9--9--7--7--7--9--9--|--9-----------7--7--7----|
--7-----------5--5--5----|--7--7--7--5--5--5--7--7--|--7--7--7--7--5--5--5----|
-----5--5--5-------------|--------------------------|-----5--5--5-------------|
 
 
  PM PM PM PM PM PM PM PM    PM PM PM PM PM PM         PM PM PM PM PM PM PM PM  
  E  E  E  E  E  E  E  E     E  E  E  E  E  E  Q       E  E  E  E  E  E  E  E   
--------------------------|-------------------------|--------------------------|
--------------------------|-------------------------|--------------------------|
--------------------------|-------------------------|--------------------------|
--9--9--9--7--7--7--9--9--|--9-----------7--7--7----|--9--9--9--7--7--7--9--9--|
--7--7--7--5--5--5--7--7--|--7--7--7--7--5--5--5----|--7--7--7--5--5--5--7--7--|
--------------------------|-----5--5--5-------------|--------------------------|
 
 
  PM PM PM PM PM PM         PM PM PM PM PM PM PM PM    PM PM PM PM PM PM       
  E  E  E  E  E  E  Q       E  E  E  E  E  E  E  E     E  E  E  E  E  E  Q     
-------------------------|--------------------------|-------------------------|
-------------------------|--------------------------|-------------------------|
-------------------------|--------------------------|-------------------------|
--9-----------7--7--7----|--9--9--9--7--7--7--9--9--|--9-----------7--7--7----|
--7--7--7--7--5--5--5----|--7--7--7--5--5--5--7--7--|--7--7--7--7--5--5--5----|
-----5--5--5-------------|--------------------------|-----5--5--5-------------|
 
 
  E  E  E  E  E  E  E  E     E  E  E  E  E  E  E  E   
--------------------------|--------------------------|
--------------------------|--------------------------|
--------------------------|--------------------------|
--------------------------|--------------------------|
--5--5--5--5--5--5--5--5--|--9--9--9--9--9--9--9--9--|
--3--3--3--3--3--3--3--3--|--7--7--7--7--7--7--7--7--|
 
 
  E  E  E  E  E  E  E  E     E  E  E  E  E  E  E  E   
--------------------------|--------------------------|
--------------------------|--------------------------|
--------------------------|--------------------------|
--------------------------|--------------------------|
--5--5--5--5--5--5--5--5--|--7--7--7--7--9--9--7--7--|
--3--3--3--3--3--3--3--3--|--5--5--5--5--7--7--5--5--|
 
 
  E  E  E  E  E  E  E  E     E  E  E  E  E  E  E  E   
--------------------------|--------------------------|
--------------------------|--------------------------|
--------------------------|--------------------------|
--------------------------|--------------------------|
--5--5--5--5--5--5--5--5--|--9--9--9--9--9--9--9--9--|
--3--3--3--3--3--3--3--3--|--7--7--7--7--7--7--7--7--|
 
 
  E  E  E  E  E  E  E  E     E  E  E  E  Q    Q        
--------------------------|--------------------------||
--------------------------|--------------------------||
--------------------------|------------------------*-||
--------------------------|------------------------*-||
--7--7--L--7--7--L--7--7--|--L--7--7--L--7----7------||
--5--5--L--5--5--L--5--5--|--L--5--5--L--5----5------||
 
 
  PM PM PM PM PM PM PM PM    PM PM PM PM PM PM         PM PM PM PM PM PM PM PM  
  E  E  E  E  E  E  E  E     E  E  E  E  E  E  Q       E  E  E  E  E  E  E  E   
--------------------------|-------------------------|--------------------------|
--------------------------|-------------------------|--------------------------|
--------------------------|-------------------------|--------------------------|
--9--9--9--7--7--7--9--9--|--9-----------7--7--7----|--9--9--9--7--7--7--9--9--|
--7--7--7--5--5--5--7--7--|--7--7--7--7--5--5--5----|--7--7--7--5--5--5--7--7--|
--------------------------|-----5--5--5-------------|--------------------------|
 
 
  PM PM PM PM PM PM                                                           
  E  E  E  E  E  E  Q       Q    E  E  E  E  E  E     E  E  E  E  E  E  Q     
-------------------------|-------------------------|-------------------------|
-------------------------|-------------------------|-------------------------|
-------------------------|-------------------------|-------------------------|
--9-----------7--7--7----|--9----x--7--L--7--x-----|-------------------------|
--7--7--7--7--5--5--5----|--7----x--5--L--5--x--7--|--L--7--x--5--5--5--9----|
-----5--5--5-------------|----------------------5--|--L--5--x--3--3--3--7----|
 
 
  Q    E  E  E  E  E  E     E  E  E  E  E  E  Q       Q    E  E  E  E  E  E   
-------------------------|-------------------------|-------------------------|
-------------------------|-------------------------|-------------------------|
-------------------------|-------------------------|-------------------------|
--9----x--7--L--7--x-----|-------------------------|--9----x--7--L--7--x-----|
--7----x--5--L--5--x--7--|--L--7--x--5--5--5--2----|--7----x--5--L--5--x--7--|
----------------------5--|--L--5--x--3--3--3--0----|----------------------5--|
 
 
  E  E  E  E  E  E  Q       Q    E  E  E  E  E  E     E  E  E  E  E  E  Q     
-------------------------|-------------------------|-------------------------|
-------------------------|-------------------------|-------------------------|
-------------------------|-------------------------|-------------------------|
-------------------------|--9----x--7--L--7--x-----|-------------------------|
--L--7--x--5--5--5--9----|--7----x--5--L--5--x--7--|--L--7--x--5--5--5--2----|
--L--5--x--3--3--3--7----|----------------------5--|--L--5--x--3--3--3--0----|
 
 
    E  E  E  E  E  E  E  E     E  E  E  E  E  E  Q     
|---------------------------|-------------------------|
|---------------------------|-------------------------|
|*--------------------------|-------------------------|
|*--9--9--9--7--7--7--9--9--|--9-----------7--7--7----|
|---7--7--7--5--5--5--7--7--|--7--7--7--7--5--5--5----|
|---------------------------|-----5--5--5-------------|
 
 
  E  E  E  E  E  E  E  E     E  E  E  E  E  E  Q        
--------------------------|---------------------------||
--------------------------|---------------------------||
--------------------------|-------------------------*-||
--9--9--9--7--7--7--9--9--|--9-----------7--7--7----*-||
--7--7--7--5--5--5--7--7--|--7--7--7--7--5--5--5------||
--------------------------|-----5--5--5---------------||
 
 
  PM PM PM PM PM PM PM PM    PM PM PM PM PM PM         PM PM PM PM PM PM PM PM  
  E  E  E  E  E  E  E  E     E  E  E  E  E  E  Q       E  E  E  E  E  E  E  E   
--------------------------|-------------------------|--------------------------|
--------------------------|-------------------------|--------------------------|
--------------------------|-------------------------|--------------------------|
--------------------------|-------------------------|--------------------------|
--7--7--7--5--5--5--7--7--|--7-----------5--5--5----|--7--7--7--5--5--5--7--7--|
--------------------------|-----5--5--5-------------|--------------------------|
 
 
  PM PM PM PM PM PM         PM PM PM PM PM PM PM PM    PM PM PM PM PM PM       
  E  E  E  E  E  E  Q       E  E  E  E  E  E  E  E     E  E  E  E  E  E  Q     
-------------------------|--------------------------|-------------------------|
-------------------------|--------------------------|-------------------------|
-------------------------|--------------------------|-------------------------|
-------------------------|--------------------------|-------------------------|
--7-----------5--5--5----|--7--7--7--5--5--5--7--7--|--7-----------5--5--5----|
-----5--5--5-------------|--------------------------|-----5--5--5-------------|
 
 
  PM PM PM PM PM PM PM PM    PM PM PM PM PM PM         PM PM PM PM PM PM PM PM  
  E  E  E  E  E  E  E  E     E  E  E  E  E  E  Q       E  E  E  E  E  E  E  E   
--------------------------|-------------------------|--------------------------|
--------------------------|-------------------------|--------------------------|
--------------------------|-------------------------|--------------------------|
--------------------------|-------------------------|--9--9--9--7--7--7--9--9--|
--7--7--7--5--5--5--7--7--|--7-----------5--5--5----|--7--7--7--5--5--5--7--7--|
--------------------------|-----5--5--5-------------|--------------------------|
 
 
  PM PM PM PM PM PM         PM PM PM PM PM PM PM PM    PM PM PM PM PM PM       
  E  E  E  E  E  E  Q       E  E  E  E  E  E  E  E     E  E  E  E  E  E  Q     
-------------------------|--------------------------|-------------------------|
-------------------------|--------------------------|-------------------------|
-------------------------|--------------------------|-------------------------|
--9-----------7--7--7----|--9--9--9--7--7--7--9--9--|--9-----------7--7--7----|
--7--7--7--7--5--5--5----|--7--7--7--5--5--5--7--7--|--7--7--7--7--5--5--5----|
-----5--5--5-------------|--------------------------|-----5--5--5-------------|
 
 
  PM PM PM PM PM PM PM PM    PM PM PM PM PM PM         PM PM PM PM PM PM PM PM  
  E  E  E  E  E  E  E  E     E  E  E  E  E  E  Q       E  E  E  E  E  E  E  E   
--------------------------|-------------------------|--------------------------|
--------------------------|-------------------------|--------------------------|
--------------------------|-------------------------|--------------------------|
--9--9--9--7--7--7--9--9--|--9-----------7--7--7----|--9--9--9--7--7--7--9--9--|
--7--7--7--5--5--5--7--7--|--7--7--7--7--5--5--5----|--7--7--7--5--5--5--7--7--|
--------------------------|-----5--5--5-------------|--------------------------|
 
 
  PM PM PM PM PM PM                                                            
  E  E  E  E  E  E  Q       E  E  E  E  E  E  E  E     E  E  E  E  E  E  Q     
-------------------------|--------------------------|-------------------------|
-------------------------|--------------------------|-------------------------|
-------------------------|--------------------------|-------------------------|
--9-----------7--7--7----|--9--9--9--7--7--7--9--9--|--9-----------7--7--7----|
--7--7--7--7--5--5--5----|--7--7--7--5--5--5--7--7--|--7--7--7--7--5--5--5----|
-----5--5--5-------------|--------------------------|-----5--5--5-------------|
 
 
  E  E  E  E  E  E  E  E     E  E  E  E  E  E  Q       E  E  E  E  E  E  E  E   
--------------------------|-------------------------|--------------------------|
--------------------------|-------------------------|--------------------------|
--------------------------|-------------------------|--------------------------|
--9--9--9--7--7--7--9--9--|--9-----------7--7--7----|--9--9--9--7--7--7--9--9--|
--7--7--7--5--5--5--7--7--|--7--7--7--7--5--5--5----|--7--7--7--5--5--5--7--7--|
--------------------------|-----5--5--5-------------|--------------------------|
 
 
  E  E  E  E  E  E  Q       E  E  E  E  E  E  E  E     E  E  E  E  E  E  Q     
-------------------------|--------------------------|-------------------------|
-------------------------|--------------------------|-------------------------|
-------------------------|--------------------------|-------------------------|
--9-----------7--7--7----|--9--9--9--7--7--7--9--9--|--9-----------7--7--7----|
--7--7--7--7--5--5--5----|--7--7--7--5--5--5--7--7--|--7--7--7--7--5--5--5----|
-----5--5--5-------------|--------------------------|-----5--5--5-------------|
 
 
  W                   W                   W                 
-------------------|-------------------|-------------------|
-------------------|-------------------|-------------------|
-------------------|-------------------|-------------------|
--2----------------|--L----------------|--L----------------|
--2----------------|--L----------------|--L----------------|
--0----------------|--L----------------|--L----------------|
 
 
  W                  
-------------------||
-------------------||
-------------------||
--L----------------||
--L----------------||
--L----------------||
 
 
 
 
Duration Legend
---------------
W - whole
H - half
Q - quarter
E - 8th
S - 16th
T - 32nd
X - 64th
. - note dotted
|-n-|  - n-tuplets
 
 
Tablature Legend
----------------
L - tied note
x - dead note
g - grace note
(n) - ghost note
> - accentuded note
NH - natural harmonic
AH - artificial harmonic
TH - tapped harmonic
SH - semi harmonic
PH - pitch harmonic
h - hammer on
p - pull off
b - bend
br - bendRelease
pb - preBend
pbr - preBendRelease
brb - bendReleaseBend
\n/ - tremolo bar dip
\n - tremolo bar dive
-/n - tremolo bar Release up
/n\ - tremolo bar inverted dip
/n - tremolo bar return
-\n - tremolo bar Release down
S - shift slide
s - legato slide
/ -  slide into from below or out of upwards
\ -  slide into from above or out of downwards
~ - vibrato
W - wide vibrato
tr - tril'
TP - tremolo picking
T - tapping
S - slap
P - pop
< - fade in
^ - brush up
v - brush down
Tap to rate this tab
 
# A B C D E F G H I J K L M N O P Q R S T U V W X Y Z