Song name
# A B C D E F G H I J K L M N O P Q R S T U V W X Y Z

Schaeffers Train - Mawi tab

Mawi                                       
Gyatso (Luis D.)

Guit.

     Em9                                                  
     E   E  E  E  E  E  E  E     E  E  E  E  E  E  E  E   
E||---------------0-----------|--------------0-----------|
B||--3---------------3--------|-----------------3--------|
G||---------0--------------0--|--------0--------------0--|
D||------4--------------4-----|-----4--------------4-----|
A||--5---------5--------------|--5--------5--------------|
E||---------------------------|--------------------------|
 
 
  E  E  E  E  E  E  E  E     E  E  E  E  E  E  E  E   
--------------0-----------|--------------0-----------|
--3--------------3--------|-----------------3--------|
--------0--------------0--|--------0--------------0--|
-----4--------------4-----|-----4--------------4-----|
--5--------5--------------|--5--------5--------------|
--------------------------|--------------------------|
 
 
  G7M/E                                                  
  E     E  E  E  E  E  E  E     E  E  E  E  E  E  E  E   
-----------------7-----------|--------0--------------7--|
--0-----------------------0--|-----0-----------0--------|
-----------0-----------0-----|--0-----------0-----------|
--------4-----------4--------|--4--------4--------------|
--7-----------7--------------|--------------------7-----|
-----------------------------|--------------------------|
 
 
  Gadd11/F                                                        
  E         E  E  E   E   E  E  E      E   E  E  E  E  E   E  E   
---------------------10------------|----------------0------------|
---------------0-------------0-----|--10------0------------------|
------------------0-------------0--|-------------0------------0--|
-----------10------------10--------|------10--------------10-----|
--8--------------------------------|-------------------8---------|
-----------------------------------|-----------------------------|
 
 
  Em7                            F           Dm/F           Dm                 
                                 v           v              v                  
  E   E  E  E   E  E   E  E      Q     Q     Q     Q        H        H         
---------------10--7---------|---8----12----10----------|---------------------|
------8---------------10--8--|--10----------10----12----|--10-----------------|
------------7----------------|--10----------10----------|--10-----------------|
---------9-------------------|--10----------------------|--12-----------------|
--7--------------------------|---8----------------------|---------------------|
-----------------------------|--------------------------|---------------------|
 
 
  Em9                                                  
  E   E  E  E  E  E  E  E     E  E  E  E  E  E  E  E   
---------------0-----------|--------------0-----------|
--3---------------3--------|-----------------3--------|
---------0--------------0--|--------0--------------0--|
------4--------------4-----|-----4--------------4-----|
--5---------5--------------|--5--------5--------------|
---------------------------|--------------------------|
 
 
  E  E  E  E  E  E  E  E     E  E  E  E  E  E  E  E   
--------------0-----------|--------------0-----------|
--3--------------3--------|-----------------3--------|
--------0--------------0--|--------0--------------0--|
-----4--------------4-----|-----4--------------4-----|
--5--------5--------------|--5--------5--------------|
--------------------------|--------------------------|
 
 
  G7M/E                                                  
  E     E  E  E  E  E  E  E     E  E  E  E  E  E  E  E   
-----------------7-----------|--------0--------------7--|
--0-----------------------0--|-----0-----------0--------|
-----------0-----------0-----|--0-----------0-----------|
--------4-----------4--------|--4--------4--------------|
--7-----------7--------------|--------------------7-----|
-----------------------------|--------------------------|
 
 
  Gadd11/F                                                        
  E         E  E  E   E   E  E  E      E   E  E  E  E  E   E  E   
---------------------10------------|----------------0------------|
---------------0-------------0-----|--10------0------------------|
------------------0-------------0--|-------------0------------0--|
-----------10------------10--------|------10--------------10-----|
--8--------------------------------|-------------------8---------|
-----------------------------------|-----------------------------|
 
 
  Em7                            F           Dm/F           Dm                 
                                 v           v              v                  
  E   E  E  E   E  E   E  E      Q     Q     Q     Q        H        H         
---------------10--7---------|---8----12----10----------|---------------------|
------8---------------10--8--|--10----------10----12----|--10-----------------|
------------7----------------|--10----------10----------|--10-----------------|
---------9-------------------|--10----------------------|--12-----------------|
--7--------------------------|---8----------------------|---------------------|
-----------------------------|--------------------------|---------------------|
 
 
     NH         NH             NH                
     H          H              W                 
-------------------------|----------------------|
-------------------------|----------------------|
-------------------------|----------------------|
--<>12-------------------|----------------------|
-------------------------|--<>12----------------|
--------------<>7--------|----------------------|
 
 
    Fadd9                         Em                       
    E     E  E  E  E  E  E  E     E  E  E  E  E  E  E  E   
|---------------------------8--|--7--------------------7--|
|---8--------------------8-----|-----8-----------8--------|
|*--------0--0-----0--0--------|--------0--0--------0-----|
|*--------------7--------------|--------------------------|
|---8--------------------8-----|--7-----------7-----------|
|------------------------------|--------------------------|
 
 
  Fadd9                          Gsus2                          
  E     E  E  E  E  E  E  E      E     E  E  E   E   E  E   E   
--------------------------8--|--10--------------10---------10--|
--8--------------------8-----|--------10------------10---------|
--------0--0-----0--0--------|------------0-------------0------|
--------------7--------------|---------------0-----------------|
--8--------------------8-----|--10-----------------------------|
-----------------------------|---------------------------------|
 
 
  Fadd9                          Em/A                             
  E     E  E  E  E  E  E  E      E    E   E   E   E   E   E   E   
--------------------------8--|--12-----------12------------------|
--8--------------------8-----|-----------12------12--------------|
--------0--0-----0--0--------|-------12--------------12----------|
--------------7--------------|---------------------------14------|
--8--------------------8-----|--12---------------------------12--|
-----------------------------|-----------------------------------|
 
 
  Fadd9     C7M/A        Gadd9                   G/B               
  ^         ^            ^                       ^                 
  H         H            W                       W                 
--8--------12--------|--10------------------||--15----------------|
--8--------12--------|--10------------------||--15----------------|
--0---------0--------|---0----------------*-||---0----------------|
--7--------10--------|---9----------------*-||--12----------------|
--8--------12--------|--10------------------||--14----------------|
---------------------|----------------------||--------------------|
 
 
  Emadd9                                                  
  E      E  E  E  E  E  E  E     E  E  E  E  E  E  E  E   
------------------------7-----|--------------------7-----|
------------------7--------7--|--------------7--------7--|
------------0--------0--------|--------0--------0--------|
---------5-----5--------------|-----5-----5--------------|
--7---------------------------|--7-----------------------|
------------------------------|--------------------------|
 
 
  Dm11                                                  
  E    E  E  E  E  E  E  E     E  E  E  E  E  E  E  E   
----------------------5-----|--------------------5-----|
----------------5--------5--|--------------5--------5--|
----------0--------0--------|--------0--------0--------|
-------3-----3--------------|-----3-----3--------------|
--5-------------------------|--5-----------------------|
----------------------------|--------------------------|
 
 
  Emadd9                                                  
  E      E  E  E  E  E  E  E     E  E  E  E  E  E  E  E   
------------------------7-----|--------------------7-----|
------------------7--------7--|--------------7--------7--|
------------0--------0--------|--------0--------0--------|
---------5-----5--------------|-----5-----5--------------|
--7---------------------------|--7-----------------------|
------------------------------|--------------------------|
 
 
  Cadd9                                                  
  E     E  E  E  E  E  E  E     E  E  E  E  E  E  E  E   
-----------------------3-----|--------------------3--7--|
-----------------3--------3--|--------------3-----------|
-----------0--------0--------|--------0--------0--------|
--------2-----2--------------|-----2-----2--------------|
--3--------------------------|--3-----------------------|
-----------------------------|--------------------------|
 
 
  Dadd11                                                   
  ^                              ^                         
  E      E  E  E  E  E  E  E     E  E  E  E  E  E  E  E    
--5---------------------------|--5-----------------------||
--3---------------3-----------|--3-----------3-----------||
--0---------0-----------0-----|--0-----0-----------0-----||
--4------4-----4-----4-----4--|--4--4-----4-----4-----4--||
--5---------------------------|--5-----------------------||
------------------------------|--------------------------||
 
 
 
 
Duration Legend
---------------
W - whole
H - half
Q - quarter
E - 8th
S - 16th
T - 32nd
X - 64th
. - note dotted
|-n-|  - n-tuplets
 
 
Tablature Legend
----------------
L - tied note
x - dead note
g - grace note
(n) - ghost note
> - accentuded note
NH - natural harmonic
AH - artificial harmonic
TH - tapped harmonic
SH - semi harmonic
PH - pitch harmonic
h - hammer on
p - pull off
b - bend
br - bendRelease
pb - preBend
pbr - preBendRelease
brb - bendReleaseBend
\n/ - tremolo bar dip
\n - tremolo bar dive
-/n - tremolo bar Release up
/n\ - tremolo bar inverted dip
/n - tremolo bar return
-\n - tremolo bar Release down
S - shift slide
s - legato slide
/ -  slide into from below or out of upwards
\ -  slide into from above or out of downwards
~ - vibrato
W - wide vibrato
tr - tril'
TP - tremolo picking
T - tapping
S - slap
P - pop
< - fade in
^ - brush up
v - brush down
Tap to rate this tab
# A B C D E F G H I J K L M N O P Q R S T U V W X Y Z