Song name
# A B C D E F G H I J K L M N O P Q R S T U V W X Y Z

Schandmaul - Prinzessin tab

Prinzessin 

Standard Tuning, 85b/s, 3/4 Takt

 Intro:

  Gm               D
|-^6-----5-3-----|-^5-----5-^5-----5-|
|-^8---8-----3---|-^3---3---^3---3---|
|-^7-7---------3-|-^2-2-----^2-2-----|
|----------------|-------------------|
|----------------|-------------------|
|----------------|-------------------|


  (D)                Gm
|-^10-----8-8------|-----------10-10-------|
|-^-7---7-----10-7-|-^11----11-------11----|
|-^-7-7------------|-^12-12-------------12-|
|------------------|-^12-------------------|
|------------------|-----------------------|
|------------------|-----------------------|


  Gm               D
|-^6-----5-3-----|-^5-----5-^5-----5-|
|-^8---8-----3---|-^3---3---^3---3---|
|-^7-7---------3-|-^2-2-----^2-2-----|
|----------------|-------------------|
|----------------|-------------------|
|----------------|-------------------|


  D#          D             Gm
|-------3-----------2-----|-------3------------|
|-----4---4-------3---3---|-----3---3---3-(3)--|
|---3-------3---2-------2-|---3-------3--------|
|-------------------------|--------------------|
|-6-----------5-----------|--------------------|
|-------------------------|-3------------------|


 Stophe:

  Gm               D
|-^6-----5-3-----|-^5-----5-^5-----5-|
|-^8---8-----3---|-^3---3---^3---3---|
|-^7-7---------3-|-^2-2-----^2-2-----|
|----------------|-------------------|
|----------------|-------------------|
|----------------|-------------------|


  (D)                Gm
|-^10-----8-8------|-----------10-10----------|
|-^-7---7-----10-7-|-^11----11-------11-------|
|-^-7-7------------|-^12-12-------------12----|
|------------------|-^12----------------------|
|------------------|--------------------------|
|------------------|--------------------------|


  C                  Gm               D                 Gm
|-------8-^8-----8-|-^6-----5-3-----|---5--5----5--5--|-----6--6--6-(6)--|
|-----8---^8---8---|-^8---8-----3---|---3--3----3--3--|-----3--3--3-(3)--|
|---8-----^8-8-----|-^7-7---------3-|---2--2----2--2--|-----3--3--3-(3)--|
|------------------|----------------|-0-------0-------|------------------|
|------------------|----------------|-----------------|------------------|
|-8-------^8-------|----------------|-----------------|-2S3-------3-(3)--|



 Chorus:
  
  Bm          F#m           D           A
|-------2-----------2-----|-------2-----------0-----|
|-----3---3-------2---2---|-----3---3-------2---2---|
|---4-------4---2-------2-|---2-------2---2-------2-|
|-------------------------|-0-----------------------|
|-2-----------------------|-------------0-----------|
|-------------2-----------|-------------------------|


  Bm          F#m           Bm          (Bm)
|-------2-----------2-----|-------2-----------2----------|
|-----3---3-------2---2---|-----3---3-------3---2h3h2----|
|---4-------4---2-------2-|---4-------4---4-----------4--|
|-------------------------|------------------------------|
|-2-----------------------|-2-----------2----------------|
|-------------2-----------|------------------------------|


  Bm          F#m           D           A
|-------2-----------2-----|-------2-----------0-----|
|-----3---3-------2---2---|-----3---3-------2---2---|
|---4-------4---2-------2-|---2-------2---2-------2-|
|-------------------------|-0-----------------------|
|-2-----------------------|-------------0-----------|
|-------------2-----------|-------------------------|


  Bm          F#m           G           D
|-------2-----------2-----|-------3-----------2--------|
|-----3---3-------2---2---|-----3---3-------3---3------|
|---4-------4---2-------2-|---4-------4---2-------2----|
|-------------------------|-------------0--------------|
|-2-----------------------|----------------------------|
|-------------2-----------|-3--------------------------|


                                         
  Bm          F#m           Bm
|-------2-----------2-----|-------------------2-(2)--|
|-----3---3-------2---2---|-------2h3h2-(2)----------|
|---4-------4---2-------2-|-----4-----------4--------|
|-------------------------|---4----------------------|
|-2-----------------------|-2------------------------|
|-------------2-----------|--------------------------|
  

 Thema:
 
  Gm               D
|-^6-----5-3-----|-^5-----5-^5-----5-|
|-^8---8-----3---|-^3---3---^3---3---|
|-^7-7---------3-|-^2-2-----^2-2-----|
|----------------|-------------------|
|----------------|-------------------|
|----------------|-------------------|


  (D)                Gm
|-^10-----8-8------|-----------10-10-------|
|-^-7---7-----10-7-|-^11----11-------11----|
|-^-7-7------------|-^12-12-------------12-|
|------------------|-^12-------------------|
|------------------|-----------------------|
|------------------|-----------------------|


 
|-^6-----5-3-----|-^5-----5-^5-----5-|----5-8-5---5-|-------3------------|
|-^8---8-----3---|-^3---3---^3---3---|-^7-------7---|-----3---3---3-(3)--|
|-^7-7---------3-|-^2-2-----^2-2-----|-^7-----------|---3-------3--------|
|----------------|-------------------|--------------|--------------------|
|----------------|-------------------|-^5-----------|--------------------|
|----------------|-------------------|--------------|-3------------------|



  C                  Gm               D                 Gm
|-------8-^8-----8-|-^6-----5-3-----|-^2-----2-^2-----2-|-------3--------------|
|-----8---^8---8---|-^8---8-----3---|-^3---3---^3---3---|-----3---3---3-(3)----|
|---8-----^8-8-----|-^7-7---------3-|-^2-2-----^2-2-----|---3-------3----------|   
|------------------|----------------|-^0-------^0-------|----------------------| x2
|------------------|----------------|-------------------|----------------------|
|-8-------^8-------|----------------|-------------------|-3--------------------|


Prinzessin-Lyrics:

Wo Himmel und Erde 
einander berühren
ein glutroter Kuss.
kannst Du´s sehn, kannst Du´s spüren?

Farben verblassen,
Ruhe kehrt ein.
Im dunklen Gewand 
zieht die Nacht herein.

Prinzessin, schliesse die Augen!
Schlafe nur seelenruhig ein!
Prinzessin, Du kannst mir glauben,
ich leuchte Dir,
fange Sterne dafür.
Schlafe nur ein hier bei mir!

Schon funkelt es hell 
am Firmament.
Hat je wer für Dich 
all die Stern gezählt?

Ein Traum wird Dich holen, 
Dich auserwählen.
Flieg mit ihm da hin, 
lass Dir Märchen erzählen.

Prinzessin, schliesse die Augen!
Schlafe nur seelenruhig ein!
Und kann ich einmal nicht bei Dir sein,
So schleich´ich mich in Deinen Traum hinein.
Schlafe nur seelenruhig ein!

Tap to rate this tab
# A B C D E F G H I J K L M N O P Q R S T U V W X Y Z