Song name
# A B C D E F G H I J K L M N O P Q R S T U V W X Y Z

Schandmaul - Willst Du tab

I'm sure the Tabs are about ~99% correct.
Took me about 6 hours to figure everything out.

Tuning: Standard
No Capo


Enjoy! :)


Intro:

e|----------------|----------------|----------------|--8-------------|
B|--------8-------|--------8-------|---------12-----|-----8----------|
G|--------9-------|--------9-------|---------12-----|--------9-------|
D|-----9-----9----|-----9-----9----|-----12-----12--|----------10----|
A|--7-------------|--9-------------|-10-------------|----------------|
E|----------------|----------------|----------------|--8-------------|

e|--------3-------|--------2-------|----------------|----------------|
B|--------0-------|--------0-------|--------0-------|--1p-0----------|
G|-----0-----0----|-----2-----2----|--------0-------|--------0-------|
D|----------------|----------------|-----2-----2----|-----------2----|
A|----------------|--2-------------|----------------|--3-------------|
E|--3-------------|----------------|--0-------------|----------------|

e|--------3-------|--2--0----------|----------------|----------------|
B|--------0-------|--3-----3--0----|--------0-------|--1p-0----------|
G|-----0-----0----|--2-----2--0----|-----------0----|--------0-------|
D|----------------|----------------|-----2----------|-----------2----|
A|----------------|----------------|----------------|--3-------------|
E|--3-------------|----------------|--0-------------|----------------|

e|--------3-------|--------2-------|----------------|--3-------------|
B|--------0-------|--------3-------|--------0-------|-----0----------|
G|-----0-----0----|-----2-----0----|-----0-----0----|----------------|
D|----------------|--0-------------|----------------|----------------|
A|----------------|----------------|----------------|----------------|
E|--3-------------|----------------|--3-------------|--------3--2----|

e|--------0-------|--------0-------|--------3-------|--------0-------|
B|--------0-------|--------0-------|--------0-------|--------1-------|
G|-----0-----0----|-----0-----0----|-----0-----0----|--------0-------|
D|----------------|----------------|----------------|-----2-----2----|
A|----------------|----------------|----------------|--3-------------|
E|--0-------------|--2-------------|--3-------------|----------------|


Chorus:

e|:-------3-------|--------2-------|----------------|----------------|
B|:-------0-------|--------0-------|--------0-------|--1p-0----------|
G|:----0-----0----|-----2-----2----|--------0-------|--------0-------|
D|:---------------|----------------|-----2-----2----|-----------2----|
A|:---------------|--2-------------|----------------|--3-------------|
E|:-3-------------|----------------|--0-------------|----------------|

e|--------3-------|--2--0----------|----------------|----------------|
B|--------0-------|--3-----3--0----|--------0-------|--1p-0----------|
G|-----0-----0----|--2-----2--0----|-----------0----|--------0-------|
D|----------------|----------------|-----2----------|-----------2----|
A|----------------|----------------|----------------|--3-------------|
E|--3-------------|----------------|--0-------------|----------------|

e|--------0-------|--2--0----------|----------------|--3-------------|
B|--------0-------|--3-----3--0----|--------3-------|-----3----------|
G|-----0-----0----|--2-----2--0----|-----0-----0----|----------------|
D|----------------|----------------|----------------|----------------|
A|----------------|----------------|----------------|----------------|
E|--3-------------|----------------|--3-------------|--------3--2----|

e|--------0-------|--------0-------|--------3-------|--------0------:|
B|--------0-------|--------0-------|--------0-------|--------1------:|
G|-----0-----0----|-----0-----0----|-----0-----0----|--------0------:|  x2
D|----------------|----------------|----------------|-----2-----2---:|
A|----------------|----------------|----------------|--3------------:|
E|--0-------------|--2-------------|--3-------------|---------------:|

e|:-------3-------|--2--0----------|----------------|----------------|
B|:-------0-------|--3-------------|--------0-------|--1p-0----------|
G|:----0-----0----|--2-----2-------|--------0-------|--------0-------|
D|:---------------|-----------0----|-----2-----0----|-----------2----|
A|:---------------|----------------|----------------|--3-------------|
E|:-3-------------|----------------|--0-------------|----------------|

e|--------3-------|--2--0----------|----------------|----------------|
B|--------0-------|--3-----3--0----|--------0-------|--1p-0----------|
G|-----0-----0----|--2-----2--0----|-----------0----|--------0-------|
D|----------------|----------------|-----2----------|-----------2----|
A|----------------|----------------|----------------|--3-------------|
E|--3-------------|----------------|--0-------------|----------------|

e|--------0-------|--2--0----------|----------------|--3-------------|
B|--------0-------|--3-----3--0----|--------3-------|-----3----------|
G|-----0-----0----|--2-----2--0----|-----0-----0----|----------------|
D|----------------|----------------|----------------|----------------|
A|----------------|----------------|----------------|----------------|
E|--3-------------|----------------|--3-------------|--------3--2----|

e|--------0-------|--------0-------|--------3-------|---------------:|
B|--------0-------|--------0-------|--------0-------|--1p-0---------:|
G|-----0-----0----|-----0-----0----|-----0-----0----|--------0------:|  x2
D|----------------|----------------|----------------|-----------2---:|
A|----------------|----------------|----------------|--3------------:|
E|--0-------------|--2-------------|--3-------------|---------------:|

e|--------3-------|--------2-------|----------------|----------------|
B|--------0-------|--------0-------|--------0-------|--1p-0----------|
G|-----0-----0----|-----2-----2----|--------0-------|--------0-------|
D|----------------|----------------|-----2-----2----|-----------2----|
A|----------------|--2-------------|----------------|--3-------------|
E|--3-------------|----------------|--0-------------|----------------|

e|--------3-------|--2--0----------|----------------|----------------|
B|--------0-------|--3-----3--0----|--------0-------|--1p-0----------|
G|-----0-----0----|--2-----2--0----|-----------0----|--------0-------|
D|----------------|----------------|-----2----------|-----------2----|
A|----------------|----------------|----------------|--3-------------|
E|--3-------------|----------------|--0-------------|----------------|

e|--------3-------|--------2-------|----------------|--3-------------|
B|--------0-------|--------3-------|--------0-------|-----0----------|
G|-----0-----0----|-----2-----0----|-----0-----0----|----------------|
D|----------------|--0-------------|----------------|----------------|
A|----------------|----------------|----------------|----------------|
E|--3-------------|----------------|--3-------------|--------3--2----|


Refrain:

e|--------0-------|--------0-------|--------3-------|--------2-------|
B|--------0-------|--------1-------|--------0-------|--------3-------|
G|-----0-----0----|-----0-----0----|-----0-----0----|-----2-----2----|
D|----------------|----------------|----------------|--0-------------|
A|----------------|--3-------------|----------------|----------------|
E|--0-------------|----------------|--3-------------|----------------|

e|--------0-------|--------0-------|--------3-------|--------2p-0----|
B|--------0-------|--------1-------|--------0-------|--------3-----3-|
G|-----0-----0----|-----0-----0----|-----0-----0----|-----2----------|  x2
D|----------------|----------------|----------------|--0-------------|
A|----------------|--3-------------|----------------|----------------|
E|--0-------------|----------------|--3-------------|----------------|

e|--------0-------|--------0-------|--------3-------|--------2-------|
B|--------0-------|--------1-------|--------0-------|--------3-------|  x5
G|-----0-----0----|-----0-----0----|-----0-----0----|-----2-----2----|
D|----------------|----------------|----------------|--0-------------|
A|----------------|--3-------------|----------------|----------------|
E|--0-------------|----------------|--3-------------|----------------|

e|:-------0-------|--------0-------|--------3-------|--------2p-0----|
B|:-------0-------|--------1-------|--------0-------|--------3----3--|
G|:----0-----0----|-----0-----0----|-----0-----0----|-----2----------|
D|:---------------|----------------|----------------|--0-------------|
A|:---------------|--3-------------|----------------|----------------|
E|:-0-------------|----------------|--3-------------|----------------|

e|--------0-------|--------0-------|--------3-------|--------2------:|
B|--------0-------|--------1-------|--------0-------|--------3------:|
G|-----0-----0----|-----0-----0----|-----0-----0----|-----2-----2---:|  x2
D|----------------|----------------|----------------|--0------------:|
A|----------------|--3-------------|----------------|---------------:|
E|--0-------------|----------------|--3-------------|---------------:|

e|--------0-------|--------0-------|--------3-------|--------2p-0----|
B|--------0-------|--------1-------|--------0-------|--------3----3--|
G|-----0-----0----|-----0-----0----|-----0-----0----|-----2----------|
D|----------------|----------------|----------------|--0-------------|
A|----------------|--3-------------|----------------|----------------|
E|--0-------------|----------------|--3-------------|----------------|

e|--------0-------|--------0-------|--------3-------|--------2-------|
B|--------0-------|--------1-------|--------0-------|--------3-------|
G|-----0-----0----|-----0-----0----|-----0-----0----|-----2-----2----|
D|----------------|----------------|----------------|--0-------------|
A|----------------|--3-------------|----------------|----------------|
E|--0-------------|----------------|--3-------------|----------------|


Outro:

e|----------------|----------------|----------------|--8-------------|
B|--------8-------|--------8-------|---------12-----|-----8----------|
G|--------9-------|--------9-------|---------12-----|--------9-------|
D|-----9----------|-----9----------|-----12---------|----------10----|
A|--7-------------|--9-------------|-10-------------|----------------|
E|----------------|----------------|----------------|--8-------------|

e|--------3-------|--------2-------|----------------|----------------|
B|--------0-------|--------0-------|--------0-------|--1p-0----------|
G|-----0-----0----|-----2-----2----|--------0-------|--------0-------|
D|----------------|----------------|-----2-----2----|-----------2----|
A|----------------|--2-------------|----------------|--3-------------|
E|--3-------------|----------------|--0-------------|----------------|

e|--------3-------|--2--0----------|----------------|----------------|
B|--------0-------|--3-----3--0----|--------0-------|--1p-0----------|
G|-----0-----0----|--2-----2--0----|-----------0----|--------0-------|
D|----------------|----------------|-----2----------|-----------2----|
A|----------------|----------------|----------------|--3-------------|
E|--3-------------|----------------|--0-------------|----------------|

e|--------3-------|--2--0----------|-----------3----|----------------|
B|--------0-------|--3-----3-------|--------3-------|--3-------------|
G|-----0-----0----|--2--------2----|-----0----------|-----0----------|
D|----------------|----------------|----------------|--------0-------|
A|----------------|----------------|----------------|-----------2----|
E|--3-------------|----------------|--3-------------|----------------|

e|-----3----------|
B|-----0----------|
G|-----0----------|
D|-----0----------|
A|-----2----------|
E|-----3----------|
Tap to rate this tab
# A B C D E F G H I J K L M N O P Q R S T U V W X Y Z