Song name
# A B C D E F G H I J K L M N O P Q R S T U V W X Y Z

Schandmaul - Sonnenstrahl tab

This Song is very easy to play and sounds great!

There are many versions available but this is the one I got from Martin Duckstein, the 
player of Schandmaul.


e|---------0--------|-------12---------|-1--------1-------|-0----------------|
H|------1-----1-----|-------12---------|-1-----1-----1----|-------3--1^0-----|
G|----2-----------2-|----0--------0----|-1--2-----------2-|----0-------------|
D|------------------|------------------|-1----------------|------------------|
A|-0----------------|------------------|-1----------------|-3----------------|
E|------------------|-0----------------|-1----------------|------------------|

This is the gantry of the Song, itīs impossible to tab it because there is no  official 
and Martin plays it in any case not like it is tabbed.

Hf and Gl :)

Sometimes he starts with:

e|------------------|
H|-------0^1^0------|
G|----2-------------|
D|------------------|
A|-0----------------|
E|------------------|

instead of:

e|---------0--------|
H|------1-----1-----|
G|----2-----------2-|
D|------------------|
A|-0----------------|
E|------------------|

-------------
Questions or critics!
brennexx@web.de
Tap to rate this tab
 
# A B C D E F G H I J K L M N O P Q R S T U V W X Y Z