Song name
# A B C D E F G H I J K L M N O P Q R S T U V W X Y Z

Schandmaul - Trinklied tab

Have fun ! 


Part 2 is allmost the same as part 1 just with another ending 

Part 1 of the Intro                                                                        
E||----------------------|----------------------|----------------------|
B||----------------------|----------------------|----------------------|
G||----------------------|----------------------|----------------------|
D||-----------------4----|--7-------------------|--4----5----7----5----|
A||--5----5----7---------|-------7----5----7----|----------------------|
E||----------------------|----------------------|----------------------|


                                                                   
----------------------|----------------------|------|------|------|
----------------------|----------------------|------|------|------|
----------------------|----------------------|------|------|------|
--4----7----5----4----|--4----5----4---------|------|------|------|
----------------------|-----------------7----|------|------|------|
----------------------|----------------------|------|------|------|


Part 2 of the Intro                                                                       
----------------------|----------------------|----------------------|
----------------------|----------------------|----------------------|
----------------------|----------------------|----------------------|
-----------------4----|--7-------------------|--4----5----7----5----|
--5----5----7---------|-------7----5----7----|----------------------|
----------------------|----------------------|----------------------|


                                               
----------------------|----------------------||
----------------------|----------------------||
----------------------|----------------------||
--4----7----5----4----|-------4--------------||
----------------------|--7---------7----5----||
----------------------|----------------------||
Tap to rate this tab
# A B C D E F G H I J K L M N O P Q R S T U V W X Y Z