Song name
# A B C D E F G H I J K L M N O P Q R S T U V W X Y Z

Schandmaul - Immer Die Selbe Leier tab

I tabbed this out. Have fun !

                            Part I                                                                          
E||----------------------|-----------------------|-----------------------|
B||----------------------|-----------------------|-----------------------|
G||--9-------------------|--------7----9---------|-----------------------|
D||-------7----7----9----|--10--------------7----|--7----7----9----10----|
A||----------------------|-----------------------|-----------------------|
E||----------------------|-----------------------|-----------------------|


                                                                         
------------------------|-----------------------|-----------------------|
------------------------|-----------------------|-----------------------|
-------------------7----|--7----------7----9----|-----------------------|
--10----9----10---------|-------10--------------|--7----7----9----10----|
------------------------|-----------------------|-----------------------|
------------------------|-----------------------|-----------------------|


                                                                               
----------------------|------------------------|-----------------------|------|
----------------------|------------------------|-----------------------|------|
--7----9--------------|------------------------|-----------------------|------|
------------7----7----|--7----9----10----10----|--9----7----------7----|------|
----------------------|------------------------|------------10---------|------|
----------------------|------------------------|-----------------------|------|


                               Part II                                          
-----------------------|------------------------|-----------------------|
-----------------------|------------------------|-----------------------|
------------------9----|--7---------------------|--9----7---------------|
--7----9----10---------|-------10----9----10----|------------10----9----|
-----------------------|------------------------|-----------------------|
-----------------------|------------------------|-----------------------|


                                                                      
----------------------|----------------------|-----------------------|
--8-------------------|--8-------------------|------------9----10----|
-------7---------7----|-------7--------------|--9----8---------------|
------------9---------|------------9----7----|-----------------------|
----------------------|----------------------|-----------------------|
----------------------|----------------------|-----------------------|


                                                                         
------------------------|----------------------|------------------------|
------------------------|----------------------|------------------------|
--9----------7----------|----------------------|--------9----10----9----|
-------10---------10----|--9----7----7----9----|--10--------------------|
------------------------|----------------------|------------------------|
------------------------|----------------------|------------------------|


                                       
-----------------------|-------------||
-----------------------|-------------||
--7--------------------|-------------||
-------10----9----7----|--------7----||
-----------------------|--10---------||
-----------------------|-------------||
Tap to rate this tab
# A B C D E F G H I J K L M N O P Q R S T U V W X Y Z