Song name
# A B C D E F G H I J K L M N O P Q R S T U V W X Y Z

Schleimkeim - Geldschein tab

Schleimkeim - Geldschein

Basslauf:

Strophe:
G|---------|
D|---------|
A|---------|
E|-2-5-4-0-|

Refrein:
G|------------------|
D|------------------|
A|---2-0-23532------|
E|-0----------------|

Ende der Strophe und des Refreins:
G|------------------|
D|------------------|
A|------------------|
E|-2-5-4-0-22-0-22--|

Gitarrenlauf: (leicht verzerrt)
Die Strophen bestehen eigentlich nur aus den Akkorden:
E|----------|
H|----------|
G|-6-6--4-4-|
D|-6-6--4-4-|
A|-4-4--2-2-|
E|----------|

Das Ganze x-Mal und dann einmal:
E|-----------|
H|-----------|
G|-6-6--4-4-6|
D|-6-6--4-4-6|
A|-4-4--2-2-4|
E|-----------|

Der Refrain ist:
E|---------------|
H|---------------|
G|-6-6--4-4------|
D|-6-6--4-4--7-7-|
A|-4-4--2-2--7-7-|
E|-----------5-5-|

Nur an der Stelle "Doch morgen schon kann ich der Lohn für..." wird so gespielt:
E|----------------------------------|
H|----------------------------------|
G|-6-6--4-4----------6-6--4-4-------|
D|-6-6--4-4--7-7-6---6-6--4-4--7-7-6|
A|-4-4--2-2--7-7-6---4-4--2-2--7-7-6|
E|-----------5-5-4-------------5-5-4|

Die Stelle "Keiner glaubt, dass Gegenstände leben..." wird so gespielt:
E|-------------------------------------------------------------------|
H|-------------------------------------------------------------------|
G|-6-6-4-4-6-6--6-6-4-4------6-6-4-4--------6-6-4-4-6-6--6-6-4-4-6-6-|
D|-6-6-4-4-6-6--6-6-4-4-6-6--6-6-4-4-7-7-6--6-6-4-4-6-6--6-6-4-4-6-6-|
A|-4-4-2-2-4-4--4-4-2-2-6-6--4-4-2-2-7-7-6--4-4-2-2-4-4--4-4-2-2-4-4-|
E|----------------------4-4----------5-5-4---------------------------|
Tap to rate this tab
# A B C D E F G H I J K L M N O P Q R S T U V W X Y Z