Guitaretab - guitar tabs
Song name
# A B C D E F G H I J K L M N O P Q R S T U V W X Y Z

School Boy Humor - Camera Shy tab

Song: Camera Shy by School Boy Humor
Refer to the song for strumming please :)
Tabbed by: Aishah

Intro

E|-----000333222----------------------|
B|--333333333333----------------------|
G|--222-------------------------------|
D|--000-------------------------------|     Repeat 2 Times
A|------------------------------------|
E|------------------------------------|


Verse 1
There is no hope for you and me
Cause this long drive might be
E|-------------------|
B|-------------------|
G|----7--7-77--------|   repeat twice
D|----7--7-77--------|
A|----5--5-55--------|
E|-------------------|

The last time I take the wheel
You're not sure how you feel

E|---------------------------|
B|---------------------------|
G|---------------------------|
D|----9--9-99----55--777-----|
A|----9--9-99----55--777-----|
E|----7--7-77----33--555-----|

Pre chorus
I take the spot light
Always gives you stage fright
Wish this song would end right
Wish that you would stop
Makin my head spin

(Palm mute)
E|---------------------------------------|
B|---------------------------------------|
G|---------------------------------------|
D|----5---9--77--9--55---9--77--9--------|
A|----5---9--77--9--55---9--77--9--------|
E|----3---7--55--7--33---7--55--7--------|

Over and over it's over but what if we...
If we just pretend
E|-----------------------------------------------------------|
B|-----------------------------------------------------------|
G|-----------------------------------------------------------|
D|----5---7---9--7--5----------7-----------------------------|
A|----5---7---9--7--5(refrain)----7 (strum once and stop)----|
E|----3---5---7--5--3----------5-----------------------------|

Chorus
You'll play the love and baby I'll play the lead
So strike a pose and fake a smile you're coming with me
I'll strum my guitar cause girl I know how you are
You're just a little bit camera shy but you're still a star

E|----------------------------------------------------|
B|----------------------------------------------------|
G|-----777--------------------------------------------| repeat twice
D|-----777-5-555----777---9-99----555-999-777-555-----|
A|-----555-5-555----777---9-99----555-999-777-555-----|
E|---------3-333----555---7-77----333-777-555-333-----|


Verse 2 (Same as verse 1)
This isn't right you said
It takes some time you know
But try again tonight
This fight is getting old

Pre Chorus
I take the spot light
Always gives you stage fright
Wish this song would end right
Wish that you would stop
Makin my head spin
We're done but old enough to build up
For it wasn't false love
Wish this song would end
I wish this song would end
[ Tab from: http://www.guitaretab.com/s/school-boy-humor/176376.html ]
(Palm mute)
E|---------------------------------------|
B|---------------------------------------|
G|---------------------------------------|   repeat two times
D|----5---9--77--9--55---9--77--9--------|
A|----5---9--77--9--55---9--77--9--------|
E|----3---7--55--7--33---7--55--7--------|


Chorus
You'll play the love and baby I'll play the lead
So strike a pose and fake a smile you're coming with me
I'll strum my guitar cause girl I know how you are
You're just a little bit camera shy but you're still a star

Bridge
We're done tonight
We gotta pick it up slowly
Can I hear your voice?
What a perfect story.

(refrain)
E|----------------------------|
B|----------------------------|
G|----7------7----------------|
D|----7--97--7--97------------|
A|----5--97--5--97------------|
E|-------75-----75------------|

Can I pick you up?
You can be my star yeah
My spot light's on, we're close to your final scene


E|------------------------------------|
B|------------------------------------|
G|----777-----------------------------|     repeat twice
D|----777--5555--999-7-77-------------|
A|----555--5555--999-7-77-------------|
E|---------3333--777-5-55-------------|

Your scene the final scene final scene

E|-------------------------------------------------|
B|-------------------------------------7-7-7-------|
G|-------------------------------------7-7-7-------|     repeat twice
D|-----5-5-5xxx---7-7-7xxx---9-9-9xx---5-7-7-------|
A|-----5-5-5xxx---7-7-7xxx---9-9-9xx---------------|
E|-----3-3-3xxx---5-5-5xxx---7-7-7xx---------------|

You'll play the love and baby I'll play the lead..
(Silence)

So strike a pose and fake a smile you're coming with me

E|-----------------------------------|
B|-----------------------------------|
G|-----------------------------------|
D|---------------555-999-777-555-----|
A|---------------555-999-777-555-----|
E|--(slide up)---333-777-555-333-----|

I'll strum my guitar cause girl I know how you are
You're just a little bit camera shy but you're still a star
You're just a little bit camera shy but you're still a star
You're just a little bit camera shy but you're still a star

E|----------------------------------------------------|
B|----------------------------------------------------|
G|-----777--------------------------------------------|
D|-----777-5-555----777---9-99----555-999-777-555-----|
A|-----555-5-555----777---9-99----555-999-777-555-----|
E|---------3-333----555---7-77----333-777-555-333-----|

You're just a little bit camera shy but you're still a star
You're just a little bit camera shy but you're still a star
E|--------------------------------|
B|--------------------------------|
G|--------------------------------|
D|-----555-999-777-555------------|  repeat till the end
A|-----555-999-777-555------------|
E|-----333-777-555-333------------|


School Boy Humor
http://www.vagrant.com/artist/index/38
http://www.myspace.com/schoolboyhumor