Song name
# A B C D E F G H I J K L M N O P Q R S T U V W X Y Z

School Of Rock - Its A Long Way To The Top tab

INTRO - VERSE
|------------|
|------------|
|-0h2--2--2--|
|-0h2--2--2--|
|-0----0--0--|
|------------|

Pre-Chorus
|------------|
|------------|
|-2----------|
|-2----------|
|-0----------|
|------------|

Chorus
|---------------------------------------|-----------|
|---------------------------------------|------3----|
|:-2-----------0h2--2---2---0h2--2---2-:|-2----2----|
|:-2---5---4---0h2--2---2---0h2--2---2-:|-2----0----|
|--0---5---4---0----0---0---0----0---0--|-0---------|
|------3---2----------------------------|-----------|

|-------------------------------------|
|-------------------------------------|
|-2-----------0h2--2---2---0h2--2---2-|
|-2---5---4---0h2--2---2---0h2--2---2-|
|-0---5---4---0----0---0---0----0---0-|
|-----3---2---------------------------|
Tap to rate this tab
 
# A B C D E F G H I J K L M N O P Q R S T U V W X Y Z