Song name
# A B C D E F G H I J K L M N O P Q R S T U V W X Y Z

School Of Rock - School Of Rock tab

The 2nd solo at the end of the song.
I put in a couple extra notes cuz i think it makes it sound better but you should be 
to get the jist of the solo from this.

Key:
/- slide up
\- slide down
b- bend
r- release
~- vibrato
h- hammer on
p- pull off


e------------------------------------------------------------------------|
B-------------------------------------------------12-----12--------------|
G-9b11--b11--b11r9--7---9-7~----------7-9-9b11-b11---b11----9-9p7---9-7~-|
D---------------------9-------9-7-7-9-----------------------------9------|
A------------------------------------------------------------------------|
E------------------------------------------------------------------------|

e--------------------------------------------------------------------------|
B------------------------------------------------------------------------10|
G---7-9-7-9p7---9-7h9p7--7-9-9b11--9b11--9-7-9-7----------7-9-7-----------7|
D-9-----------9--------9-------------------------0h7-h7-h7------9-7-9--7-9-|
A--------------------------------------------------------------------------|
E--------------------------------------------------------------------------|

e-----------------------------------------------------------------------|
B--15-15p12-----12-12---------------------------------------------------|
G------------14-------14-12-10-12-10-12-10-10~--------------------10-12-|
D----------------------------------------------10-12-10-12--10-12-------|
A-----------------------------------------------------------------------|
E-----------------------------------------------------------------------|

e---------------------------------|
B---------------------------------|
G12b14-12-10-12-10-12-10----------|
D------------------------12-10-12-|
A---------------------------------|
E---------------------------------|

e---------------------------------------------------------|
B-----------13----13----13-13/15--18-15-18-15-18-18/20b21-|
G-10-12-14~----14----14-----------------------------------|
D---------------------------------------------------------|
A---------------------------------------------------------|
E---------------------------------------------------------|

(listen to the song for that distortion crap)

Ending Riffs
e----------------------------------------------|
B-15-13----------------------------------------|
G-------14-12----------------------------------|
D-------------15-12----12-12~------------------|
A-------------------15-------------------------|
E----------------------------------------------|

e-------------------------------------------------------|
B-------------------------------------------------------|
G-------10-12-12b14*hold----12p10-12-10-----------------|
D-10h12----------------------------------12~~-----------|
A-------------------------------------------------------|
E-------------------------------------------------------|
Tap to rate this tab
 
# A B C D E F G H I J K L M N O P Q R S T U V W X Y Z