Song name
# A B C D E F G H I J K L M N O P Q R S T U V W X Y Z

School Of Rock - Fight tab

                          This is the song that jack plays with no vacancy in the 
of the movie.


Main riff

E--------------------------------------------------|
B--------------------------------------------------|
G--------------------------------------------------|
D--------3~~------------------------3~~------------|
A--5-3-5-----5-3--5----5------5-3-5-----5-3--5-----|
E-------------------3b----3b--------------------3b-|

E-------------------------------------------------------------|
B-------------------------------------------------------------|
G-------------------------------------------------------------| Verse
D-------------------------------------------------------------|   2x
A--12-----------------------------------7---------------------|
E--10-10-10-10-10-10-10-10-10-10-10-10--5-5-5-5-5-5-5-5-5-5-5-|
       .  .  .  .  .  .  .  .  .  .  .    . . . . . . . . . .


This is the part where Jack screams into the mic

   (AHHHHHHH!!)
E----------------------------------------|
B----------------------------------------|
G----------------------------------------|
D----------------------------------------|
A-----------------------7---------5----2-|
E-----------------------5---------3----0-|

the main riff is the chorus

Sorry no solo.but he uses alot of whammy.

Thats it.

                                     Legend

                               b=bend
                               ~=vibrato
                               .=palm mute
Tap to rate this tab
# A B C D E F G H I J K L M N O P Q R S T U V W X Y Z