Song name
# A B C D E F G H I J K L M N O P Q R S T U V W X Y Z

School Of Rock - Mr Ss Song tab

                             In the end of time           there was a man who knew the road
E--------------------------------------------------------------------------------------------------|
B--------------------------------------------------------------------------------------------------|
G--------------------------------------------------------------------------------------------------|
D--------9------------9--------------9-----------------9--------------------------7----------------|
A-7-------------7-------------7-----------------7-------------------5----------------------5-------|
E--------------------------------------------------------------------------------------------------|

            And the writing               Was written       On the stone
E--------------------------------------------------------------------------------------------------|
B--------------------------------------------------------------------------------------------------|
G--------------------------------------------------------------------------------------------------|
D-7------------------------------5-------------------7------------------9------------------9-------|
A-----------------------3-----------------5-----------------7-------------------7------------------|
E--------------------------------------------------------------------------------------------------|


                              In the ancient times                 An artist led the way
E--------------------------------------------------------------------------------------------------|
B--------------------------------------------------------------------------------------------------|
G--------------------------------------------------------------------------------------------------|
D--------9------------9--------------9-----------------9--------------------------7----------------|
A-7-------------7-------------7-----------------7-------------------5----------------------5-------|
E--------------------------------------------------------------------------------------------------|

            But no one               Seemed to       Understaaand
E---------------------------------------------------------------------------------------------------|
B---------------------------------------------------------------------------------------------------|
G---------------------------------------------------------------------------------------------------|
D-7------------------------------5-------------------7------------------9------------------9--------|
A-------------------3---------------------5-----------------7-------------------7-------------------|
E---------------------------------------------------------------------------------------------------|


                              In his heart he knew           The artist must be truue
E---------------------------------------------------------------------------------------------------|
B---------------------------------------------------------------------------------------------------|
G---------------------------------------------------------------------------------------------------|
D--------9------------9--------------9-----------------9--------------------------7-----------------|
A-7-------------7-------------7-----------------7-------------------5----------------------5--------|
E---------------------------------------------------------------------------------------------------|

            And the legend               of the rent       was way past due!
E---------------------------------------------------------------------------------------------------|
B---------------------------------------------------------------------------------------------------|
G---------------------------------------------------------------------------------------------------|
D-7------------------5----------------------------7-----------------------9-------------------------|
A--------------------3----------------------------5-----------------------7-------------------------|
E---------------------------------------------------------------------------------------------------|


THEN THE BASS COMES IN LIKE THIS (I THINK)

G--9-9-9-9-9-9-9-9-9-7---7--------------------------------------------------------------------------|
D----------------------9---9-7-9-7------------------------------------------------------------------|
A-----------------------------------7-7-7-7-7-7-7-7-7-5---7-----------------------------------------|
E-------------------------------------------------------7-------------------------------------------|


  Well you think you'll be just fine                        Without me, but you're MINE!!!!!!
E---------------------------------------------------------------------------------------------------|
B---------------------------------------------------------------------------------------------------|
G---------------------------------------------------------------------------------------------------|
G----------9--9--9--9--9--9--9--9--9--9--9--9--9--9--9--9---7--7--7--7--7--7--7--7--7--7--7--7--7---|
A----------7--7--7--7--7--7--7--7--7--7--7--7--7--7--7--7---5--5--5--5--5--5--5--5--5--5--5--5--5---|
E---------------------------------------------------------------------------------------------------|

            You think you can     Kick me out of the band
E---------------------------------------------------------------------------------------------------|
B---------------------------------------------------------------------------------------------------|
G---------------------------------------------------------------------------------------------------|
D-7--7--7-------5------------------7---------------------9------------------------------------------|
A-5--5--5-------3------------------5---------------------7------------------------------------------|
E---------------------------------------------------------------------------------------------------|

THE FACE MELTER
E----------------------------------------------|
B----------------------------------------------|
G--/16-14-12H14P12-14--11H12P11-12--9H11P9 11--|
D----------------------------------------------|
A----------------------------------------------|
E----------------------------------------------|


  Well theres just one problem there                       The band is MIIIINE!!!!!
E---------------------------------------------------------------------------------------------------|
B---------------------------------------------------------------------------------------------------|
G---------------------------------------------------------------------------------------------------|
G----------9--9--9--9--9--9--9--9--9--9--9--9--9--9--9--9---7--7--7--7--7--7--7--7--7--7--7--7--7---|
A----------7--7--7--7--7--7--7--7--7--7--7--7--7--7--7--7---5--5--5--5--5--5--5--5--5--5--5--5--5---|
E---------------------------------------------------------------------------------------------------|

                How can you kick me out    Of what is MIIINE!!!!!!
E---------------------------------------------------------------------------------------------------|
B---------------------------------------------------------------------------------------------------|
G---------------------------------------------------------------------------------------------------|
D-7--7--7-------5------------------7---------------------9------------------------------------------|
A-5--5--5-------3------------------5---------------------7------------------------------------------|
E---------------------------------------------------------------------------------------------------|

HAWAI 5.0. drum beat


          you're not hardcore                       Unless you live hardcore
E--------------------------------------------------------------------------------------------------|
B--------------------------------------------------------------------------------------------------|
G--------------------------------------------------------------------------------------------------|
G----------9--9--9--9--9--9--9--9--9--9--9--9--9--9--9--9---7--7--7--7--7--7--7--7--7--7--7--7--7--|
A----------7--7--7--7--7--7--7--7--7--7--7--7--7--7--7--7---5--5--5--5--5--5--5--5--5--5--5--5--5--|
E--------------------------------------------------------------------------------------------------|

            But the legend of the rent     Was way hardcore!
E----------------------------------------------------------------------------|
B----------------------------------------------------------------------------|
G----------------------------------------------------------------------------|
D-7--7--7-------5------------------7---------------------9-------------------|
A-5--5--5-------3------------------5---------------------7-------------------|
E----------------------------------------------------------------------------|

Big ol' explosion, some confetti comes down.
Tap to rate this tab
# A B C D E F G H I J K L M N O P Q R S T U V W X Y Z