Song name
# A B C D E F G H I J K L M N O P Q R S T U V W X Y Z

School Of Rock - Long Way To The Top tab

------------------------------------------------------------------------------
			    Long way to the top
-------------------------------------------------------------------------------
Tabbed by:Rokinrob121
Email:gibsonman_3@hotmail.com

Tuning:standard
Intro and verse
e|-------------------------------------------------------------------------|
B|-------------------------------------------------------------------------|
G|------2----2-------------------------------------------------------------|
D|--0-0-2----2-------------------------------------------------------------|
A|--0-0-0-0--0-------------------------------------------------------------|
E|-------------------------------------------------------------------------|
Chorus
e|------------------------------------------------------------------------|
B|------------------------------------------------------------------------|
G|-2-2-2------------------------------------------------------------------|
D|-2-2-2--5---4-----------------------------------------------------------|
A|-0-0-0--5---4-----------------------------------------------------------| 
E|--------3---2-----------------------------------------------------------|
play in time with lyrics

e|-------------------------------------------------------------------------|
B|-----2-------------------------------------------------------------------|
G|-2---2-------------------------------------------------------------------|
D|-2---0-------------------------------------------------------------------|
A|-0-----------------------------------------------------------------------|
E|-------------------------------------------------------------------------|
 THe bit  after the chorus
then go to chorus
 Then to verse  
Solo:
e|-------------------------------------------------------------------------|
B|-------------------------------------------------------------------------|
G|--7fb-7fb-7fb-7fb-7fb-5-7-7b-5------5-----5-----5---7b-7b-5-5------------|
D|--------------------------------5-7---5-7---5-7--------------------------|
A|-------------------------------------------------------------------------|
E|-------------------------------------------------------------------------|

e|-------------------------------------------------------------------------|
B|-5-5-5-8fb-hold-for-two--5---5-------------------------------------------|
G|---------------------------7--7---7b-7b-7b-5---5-------------------------|
D|---------------------------------------------7---7-7---------------------|
A|-------------------------------------------------------------------------|
E|-------------------------------------------------------------------------|

For alcias vocal solo play the chorus
foe tamikas solo play chorus
for martas solo play verse
Tap to rate this tab
 
# A B C D E F G H I J K L M N O P Q R S T U V W X Y Z