Song name
# A B C D E F G H I J K L M N O P Q R S T U V W X Y Z

School Of Seven Bells - Chain tab

http://www.schoolofsevenbells.com/

Artist: School Of Seven Bells 
Album: Alpinisms (Ghostly International 2008)
Song: Chain
Tabbed by witmachine@yahoo.com

I don't know why i haven't been able to tab it, but i finally 
figured it out. Initially i would play the piece in standard tuning,
but i found it easier and much more enjoyable to adjust the G string
up a half step to G# and with a capo on the fourth fret.  

Ben sometimes plays with a capo so i figured this song with a capo
would work...


EADG#Be		Capo on 4th fret

intro
     1 + 2 + 3 + 4 + 1 + 2 + 3 + 4 + 1 + 2 + 3 + 4 + 1 + 2 + 3 + 4 +
e |------------------------------------------------------------------|
B |------------------------------------------------------------------|
G#|------------------------------------------------------------------|
D |--6---6---6s4---4-----4---4---4---2---2---2s0---0-----------------|
A |--7---7---7s5---5-----5---5---5---4---4---4s2---2-----2-0---0---0-|
E |--------0-----0-----0---0---0---0-------0-----0-----0-----4---4---|

verse (0:30)
     1 + 2 + 3 + 4 + 1 + 2 + 3 + 4 + 1 + 2 + 3 + 4 + 1 + 2 + 3 + 4 +
e |------------------------------------------------------------------|
B |------------------------------------------------------------------|
G#|------------------------------------------------------------------|
D |--2-2-2-2-2-2-2-2-2-2-2-2-2-2-2-2-2-2-2-2-2-2-2-2-2-2-2-2-2-2-2-2-|
A |--2-2-2-2-2-2-2-2-2-2-2-2-2-2-2-2-2-2-2-2-2-2-2-2-2-2-2-2-2-2-2-2-|
E |--0-0-0-0-0-0-0-0-0-0-0-0-0-0-0-0-0-0-0-0-0-0-0-0-0-0-0-0-0-0-0-0-|
  My sleep burrows me a chain of monochromatic rooms
  that jangles in the day and recalls a samey drone

e |------------------------------------------------------------------|
B |------------------------------------------------------------------|
G#|------------------------------------------------------------------|
D |--2-2-2-2-2-2-2-2-2-2-2-2-2-2-2-2-2-2-2-2-2-2-2-2-2-2-2-2-2-2-2-2-|
A |--2-2-2-2-2-2-2-2-2-2-2-2-2-2-2-2-2-2-2-2-2-2-2-2-2-2-2-2-2-2-2-2-|
E |--0-0-0-0-0-0-0-0-0-0-0-0-0-0-0-0-0-0-0-0-0-0-0-0-0-0-0-0-0-0-0-0-|
  Day has drawn out from the night, what's been lacking in its wage
  reviving eyes that choked the light, with no extraction for the page

chorus (0:46)

e |------------------------------------------------------------------|
B |------------------------------------------------------------------|
G#|------------------------------------------------------------------|
D |--6---6---6s4---4-----4---4---4---2---2---2s0---0-----------------|
A |--7---7---7s5---5-----5---5---5---4---4---4s2---2-----2-0---0---0-|
E |--------0-----0-----0---0---0---0-------0-----0-----0-----4---4---|
  I can not seem to remember my dreams lately

drum break (1:16)

bridge (1:31)
e |------------------------------------------------------------------|
B |------------------------------------------------------------------|
G#|------------------------------------------------------------------|
D |----------------------------------------0-----2-------------------|
A |------------------------------0---2---------------------------0---|
E |--0-----0-----0---0-----0---------------------0---0-----0---------|
    If the moon         defines the night and illuminates

e |------------------------------------------------------------------|
B |------------------------------------------------------------------|
G#|------------------------------------------------------------------|
D |--------0-------------------------------0-----2-------------------|
A |--2---------------------------0---2---------------2-----2---------|
E |--0-----0-----0---0-----0---------------------0---0-----0---------|
      without direction

e |------------------------------------------------------------------|
B |------------------------------------------------------------------|
G#|------------------------------------------------------------------|
D |------------------------------------------------------------------|
A |--7---7---7s5---5-----5---5---5---4---4---4s2---2-----2-0---0---0-|
E |--------0-----0-----0---0---0---0-------0-----0-----0-----4---4---|
   could the obscured that steered my life illuminate

e |------------------------------------------------------------------|
B |------------------------------------------------------------------|
G#|------------------------------------------------------------------|
D |------------------------------------------------------------------|
A |--7---7---7s5---5-----5---5---5---4---4---4s2---2-----2-0---0---0-|
E |--------0-----0-----0---0---0---0-------0-----0-----0-----4---4---|
   its intervention?

instrumental break (2:02)

verse (2:17)

e |------------------------------------------------------------------|
B |------------------------------------------------------------------|
G#|------------------------------------------------------------------|
D |--6---6---6s4---4-----4---4---4---2---2---2s0---0-----------------|
A |--7---7---7s5---5-----5---5---5---4---4---4s2---2-----2-0---0---0-|
E |--------0-----0-----0---0---0---0-------0-----0-----0-----4---4---|
  My sleep burrows me a chain of monochromatic rooms
  that jangles in the day and recalls a samey drone

e |------------------------------------------------------------------|
B |------------------------------------------------------------------|
G#|------------------------------------------------------------------|
D |--6---6---6s4---4-----4---4---4---2---2---2s0---0-----------------|
A |--7---7---7s5---5-----5---5---5---4---4---4s2---2-----2-0---0---0-|
E |--------0-----0-----0---0---0---0-------0-----0-----0-----4---4---|
  Day has drawn out from the night, what's been lacking in its wage
  reviving eyes that choked the light, with no extraction for the page

chorus (2:48)

e |------------------------------------------------------------------|
B |------------------------------------------------------------------|
G#|------0---0-----0-----0---0-----1-----1---1-----1-----1---1-----0-|
D |--6---6---6s4---4-----4---4---4---2---2---2s0---0-----------------|
A |--7---7---7s5---5-----5---5---5---4---4---4s2---2-----2-0---0---0-|
E |--------0-----0-----0---0---0---0-------0-----0-----0-----4---4---|
  I can not seem to remember my dreams lately

final bridge (3:20)
e |------------------------------------------------------------------|
B |------------------------------------------------------------------|
G#|------0---0-----0-----0---0-----1-----1---1-----1-----1---1-----0-|
D |--6---6---6s4---4-----4---4---4---2---2---2s0---0-----------------|
A |--7---7---7s5---5-----5---5---5---4---4---4s2---2-----2-0---0---0-|
E |--------0-----0-----0---0---0---0-------0-----0-----0-----4---4---|
   I fought so long for an explanation, planting

e |------------------------------------------------------------------|
B |------------------------------------------------------------------|
G#|------0---0-----0-----0---0-----1-----1---1-----1-----1---1-----0-|
D |--6---6---6s4---4-----4---4---4---2---2---2s0---0-----------------|
A |--7---7---7s5---5-----5---5---5---4---4---4s2---2-----2-0---0---0-|
E |--------0-----0-----0---0---0---0-------0-----0-----0-----4---4---|
   the seeds that took root in my mind explaining

e |------------------------------------------------------------------|
B |----------------------------------------3~~-----------------------|
G#|-------0-----------------------------1----------------------------|
D |-----2----------------------------2-------------------------------|
A |---2---------------------------0----------------------------------|
E |-0----------------------------------------------------------------|
   into dust what was a lucid situation

chorus (3:42)
e |------------------------------------------------------------------|
B |------------------------------------------------------------------|
G#|------------------------------------------------------------------|
D |--6---6---6s4---4-----4---4---4---2---2---2s0---0-----------------|
A |--7---7---7s5---5-----5---5---5---4---4---4s2---2-----2-0---0---0-|
E |--------0-----0-----0---0---0---0-------0-----0-----0-----4---4---|
   And I can not seem to remember my dreams lately



thanks for putting up with my rendition...
Tap to rate this tab
# A B C D E F G H I J K L M N O P Q R S T U V W X Y Z