Song name
# A B C D E F G H I J K L M N O P Q R S T U V W X Y Z

School Of Seven Bells - White Elephant Coat tab

Artist: School Of Seven Bells
Album: Alpinisms (Ghostly International 2008)
Song: White Elephant Coat
Tabbed by witmachine@yahoo.com

This is a haunting song by School Of Seven Bells.  I was able to tab this out
after watching their performance on Live At The Lime, so this tab will be
based greatly on that version.  

Available free: hxxp://www.youtube.com/watch?v=2mbkumZd5jU

For Reference, time in parentheses, ( ), is for studio version and time
in brackets, [ ],  is for the live version.


INTRO (0:17) [0:14]
     1 + 2 + 3 + 4 + 1 + 2 + 3 + 4 + 1 + 2 + 3 + 4 + 1 + 2 + 3 + 4 + 
e |--------------------------------------8---------------------10--10--|
B |--8---6-------6---11------8-----------6---------------------11--11--|
G |----------7-------------------------------------------------12--12--|
D |------------------------------------------------------------12--12--|
A |--------------------------------------------------------------------|
E |--------------------------------------------------------------------|

e |--------------------------------------------------------------10----|
B |----------------------------------10----10----10---10p9---9h10------|
G |--------------------------------------------------------10----------|
D |--------------------------------10----10----10----------------------|
A |------------------------------------10----10------------------------|
E |--------------------------------------------------------------------|

VERSE (0:42) [0:43]
     Gm                                F                     Bb
e |--3-----3---3-3-3-3---3---3---3-3----------------------------------|
B |--3-----3---3-3-3-3---3---3---3-3----------------------------------|
G |--0-----0---0-0-0-0---0---0---0-0---2-2---2-2---2-2---2---3---3----|
D |--0-----0---0-0-0-0---0---0---0-0---3-3---3-3---3-3---3---3---3----|
A |--1-----1---1-1-1-1---1---1---1-1---3-3---3-3---3-3---3---5---5----|
E |--3-----3---3-3-3-3---3---3---3-3---1-1---1-1---1-1---1---6---6----|
     See The Branches Bend Light...

CHORUS (3:27) [3:45]

e |-------------------------------------------------------------------|
B |--11--10--11--10--11--10--11-10------------------------------------|
G |--------------------------------10----9----------------------------|
D |------------------------------------------------10----8------------|
A |-------------------------------------------------------------------|
E |-------------------------------------------------------------------|
    Take From Me This White   Elephant             Coat


Very basic, bare bones song...
Tap to rate this tab
# A B C D E F G H I J K L M N O P Q R S T U V W X Y Z