Song name
# A B C D E F G H I J K L M N O P Q R S T U V W X Y Z

School Of Seven Bells - Connjur tab

Artist: School Of Seven Bells
Album: Alpinisms
Song: Connjur
Tabbed by witmachine@yahoo.com

Upbeat rocker off of School Of Seven Bells' debut LP, Alpinisms.
Guitar tuned to drop D (DADGBe)
Like a lot of their guitar-heavy songs, Ben has these cool, basic
guitar riffs, loops them and adds sounds.
These are the basics of this song.

INTRO 0:15
     1 + 2 + 3 + 4 + 5 + 6 + 7 + 8 + 1 + 2 + 3 + 4 + 5 + 6 + 7 + 8 + 
e |-------------------------------------------------------------------|
B |-------------------------------------------------------------------|
G |------7-----------7-------7---7-------7-----------7-------7--------|
D |-------------------------------------------------------------------|
A |------5-----------5-------5---5-------5-----------5-------5--------|
D |--0-------0---0-------0-----------0-------0---0-------0------------|


VERSE
   0:29
e |-------------------------------------------------------------------|
B |-------------------------------------------------------------------|
G |*-----7-----------7-------7---7-------7-----------7-------7--------|
D |*------------------------------------------------------------------|
A |------5-----------5-------5---5-------5-----------5-------5--------|
D |--0-------0---0-------0-----------0-------0---0-------0------------|
 1.  How         does        some      one    with 
 2.  All         kinds       of      people

e |-------------------------------------------------------------------|
B |-------------------------------------------------------------------|
G |------7-----------7-------7---7-------7-----------7-------7--------|
D |-------------------------------------------------------------------|
A |------5-----------5-------5---5-------5-----------5-------5--------|
D |--0-------0---0-------0-----------0-------0---0-------0------------|
 1.  nothing         end
 2.  places              and         things
 
e |-------------------------------------------------------------------|
B |-------------------------------------------------------------------|
G |------7-----------7-------7---7-------7-----------7-------7--------|
D |-------------------------------------------------------------------|
A |------5-----------5-------5---5-------5-----------5-------5--------|
D |--0-------0---0-------0-----------0-------0---0-------0------------|
 1.  up      with            so      much            to 
 2.  your    cheap           doormats    and 

e |-------------------------------------------------------------------|
B |-------------------------------------------------------------------|
G |------7-----------7-------7---7-------7-----------7-------7-------*|
D |------------------------------------------------------------------*|
A |------5-----------5-------5---5-------5-----------5-------5--------|
D |--0-------0---0-------0-----------0-------0---0-------0------------|
 1.  show    for         it?
 2.  decorations-


BRIDGE 1
   0:59
e |-------------------------------------------------------------------|
B |-------------------------------------------------------------------|
G |------4-------------------------------4----------------------------|
D |------------------2-------2---0-------------------2-------0--------|
A |------2-----------2-------2---2-------2-----------2-------2--------|
D |--0-------0---0-------0-----------0-------0---0-------0------------|
     And     to               think      it          was     all

e |-------------------------------------------------------------------|
B |-------------------------------------------------------------------|
G |------4-------------------------------4----------------------------|
D |------------------2-------2---0-------------------2-------0--------|
A |------2-----------2-------2---2-------2-----------2-------2--------|
D |--0-------0---0-------0-----------0-------0---0-------0------------|
             just        a           dream

e |-------------------------------------------------------------------|
B |-------------------------------------------------------------------|
G |-------------------------------------------------------------------|
D |-------------------------------------------------------------------|
A |------5-----------7-------7---5-------5-----------7-------5--------|
D |--0---7---0---0---7---0---7---7---0---7---0---0---7---0---7--------|
     one            fantastic 

e |-------------------------------------------------------------------|
B |-------------------------------------------------------------------|
G |-------------------------------------------------------------------|
D |-------------------------------------------------------------------|
A |------5-----------7-------7---5-------5-----------7-------5--------|
D |--0---7---0---0---7---0---7---7---0---7---0---0---7---0---7--------|
     hallucination


SOLO
   1:14
e |----------10------10--9---9----------------------------------------|
B |------------------------------10--10--12--10------10---------------|
G |--9---11--------------------------------------11------11--9---11---|
D |-------------------------------------------------------------------|
A |-------------------------------------------------------------------|
D |-------------------------------------------------------------------|


VERSE 2
   1:28
e |-------------------------------------------------------------------|
B |-------------------------------------------------------------------|
G |------7-----------7-------7---7-------7-----------7-------7--------|
D |-------------------------------------------------------------------|
A |------5-----------5-------5---5-------5-----------5-------5--------|
D |--0-------0---0-------0-----------0-------0---0-------0------------|
     Keep    on          polishing 

e |-------------------------------------------------------------------|
B |-------------------------------------------------------------------|
G |------7-----------7-------7---7-------7-----------7-------7--------|
D |-------------------------------------------------------------------|
A |------5-----------5-------5---5-------5-----------5-------5--------|
D |--0-------0---0-------0-----------0-------0---0-------0------------|
     your    golden

e |-------------------------------------------------------------------|
B |-------------------------------------------------------------------|
G |------7-----------7-------7---7-------7-----------7-------7--------|
D |-------------------------------------------------------------------|
A |------5-----------5-------5---5-------5-----------5-------5--------|
D |--0-------0---0-------0-----------0-------0---0-------0------------|
     wall            of      trophies                and

e |-------------------------------------------------------------------|
B |-------------------------------------------------------------------|
G |------7-----------7-------7---7-------7-----------7-------7--------|
D |-------------------------------------------------------------------|
A |------5-----------5-------5---5-------5-----------5-------5--------|
D |--0-------0---0-------0-----------0-------0---0-------0------------|
     self    portraits

e |-------------------------------------------------------------------|
B |-------------------------------------------------------------------|
G |*-----4-------------------------------4----------------------------|
D |*-----------------2-------2---0-------------------2-------0--------|
A |------2-----------2-------2---2-------2-----------2-------2--------|
D |--0-------0---0-------0-----------0-------0---0-------0------------|
 1.  We'll           just    smile   and             wait    till 
 2.  And             you'll  see     what            we      see

e |-------------------------------------------------------------------|
B |-------------------------------------------------------------------|
G |------4-------------------------------4----------------------------|
D |------------------2-------2---0-------------------2-------0--------|
A |------2-----------2-------2---2-------2-----------2-------2--------|
D |--0-------0---0-------0-----------0-------0---0-------0------------|
 1.          he              knocks  off
 2.          nothing                 but

e |-------------------------------------------------------------------|
B |-------------------------------------------------------------------|
G |-------------------------------------------------------------------|
D |-------------------------------------------------------------------|
A |------5-----------7-------7---5-------5-----------7-------5--------|
D |--0---7---0---0---7---0---7---7---0---7---0---0---7---0---7--------|
 1.  your            designer                        rose
 2.   old            dust    peeled      paint       and

e |-------------------------------------------------------------------|
B |-------------------------------------------------------------------|
G |------------------------------------------------------------------*|
D |------------------------------------------------------------------*|
A |------5-----------7-------7---5-------5-----------7-------5--------|
D |--0---7---0---0---7---0---7---7---0---7---0---0---7---0---7--------|
 1.  colored                 glasses
 2.  broken                              glasses


SOLO
   2:13-2:27
e |----------10------10--9---9----------------------------------------|
B |------------------------------10--10--12--10------10---------------|
G |--9---11--------------------------------------11------11--9---11---|
D |-------------------------------------------------------------------|
A |-------------------------------------------------------------------|
D |-------------------------------------------------------------------|


   2:28-2:57
e |-------------------------------------------------------------------|
B |-------------------------------------------------------------------|
G |------7-----------7-------7---7-------7-----------7-------7--------|
D |-------------------------------------------------------------------|
A |------5-----------5-------5---5-------5-----------5-------5--------|
D |--0-------0---0-------0-----------0-------0---0-------0------------|
    A simple imprint imagined
    I was the hill we walked
    I was the walk that swung from your legs
    I was your words wet cast in my thoughts


BRIDGE 2
   2:58
e |-------------------------------------------------------------------|
B |-------------------------------------------------------------------|
G |*-----4-------------------------------4----------------------------|
D |*-----------------2-------2---0-------------------2-------0--------|
A |------2-----------2-------2---2-------2-----------2-------2--------|
D |--0-------0---0-------0-----------0-------0---0-------0------------|
 1.  Those           who     say          dreams are just
 2.  Listen                  closely     as they

e |-------------------------------------------------------------------|
B |-------------------------------------------------------------------|
G |------4-------------------------------4----------------------------|
D |------------------2-------2---0-------------------2---/4--4--------|
A |------2-----------2-------2---2-------2-----------2----------------|
D |--0-------0---0-------0-----------0-------0---0-----------0--------|
 1.   dreams
 2.   fade

e |-------------------------------------------------------------------|
B |-------------------------------------------------------------------|
G |------7-------------------------------7-----------7-------7--------|
D |-------------------------------------------------------------------|
A |------5-----------7-------7---5-------5-----------7-------5--------|
D |--0-------0---0---0---0---0---0---0-------0---0-------0------------|
 1.  say         words       end         when        you     can't
 2.  and         witness                 the         world's

e |-------------------------------------------------------------------|
B |-------------------------------------------------------------------|
G |------7-------------------------------7-----------7-------7-------*|
D |------------------------------------------------------------------*|
A |------5-----------7-------7---5-------5-----------7--/9---9--------|
D |--0-------0---0---0---0---0---0---0-------0---0---0---0------------|
 1.  hear them
 2.  construction 

   3:27
e |-------------------------------------------------------------------|
B |-------------------------------------------------------------------|
G |------7-----------7-------7---7-------7-----------7-------7--------|
D |-------------------------------------------------------------------|
A |------5-----------5-------5---5-------5-----------5-------5--------|
D |--0-------0---0-------0-----------0-------0---0-------0------------|
   Keep on polishing your golden
   Wall of trophies and self-portraits
   We'll just smile and wait til he knocks off
   Your designer rose colored glasses

   3:56
e |----------10------10--9---9----------------------------------------|
B |------------------------------10--10--12--10------10---------------|
G |--9---11--------------------------------------11------11--9---11---|
D |-------------------------------------------------------------------|
A |-------------------------------------------------------------------|
D |-------------------------------------------------------------------|
    And you'll see what we see, nothing but...







     1 + 2 + 3 + 4 + 5 + 6 + 7 + 8 + 1 + 2 + 3 + 4 + 5 + 6 + 7 + 8 + 
e |-------------------------------------------------------------------|
B |-------------------------------------------------------------------|
G |-------------------------------------------------------------------|
D |-------------------------------------------------------------------|
A |-------------------------------------------------------------------|
D |-------------------------------------------------------------------|
Tap to rate this tab
 
# A B C D E F G H I J K L M N O P Q R S T U V W X Y Z