Song name
# A B C D E F G H I J K L M N O P Q R S T U V W X Y Z

School Of Seven Bells - Iamundernodisguise tab

Help us improve GuitareTab! Take a short survey!
Artist: School Of Seven Bells
Album: Alpinisms
Song: Iamundernodisguise
Tabbed by witmachine@yahoo.com

First track of the debut LP by School Of Seven Bells.
The guitarist uses loops and adds sounds over this, but these are
the bare bones of the song...

     1 + 2 + 3 + 4 + 5 + 6 + 7 + 8 + 1 + 2 + 3 + 4 + 5 + 6 + 7 + 8 + 
e |-------------------------------------------------------------------|
B |-------------------------------------------------------------------|
G |-------------------------------------------------------------------|
D |----------------------------------5---------------2-----2-----2----|
A |------------------3-----3-----3---------3-----3--------------------|
E |--5-----5-----5----------------------------------------------------|
      Iam       un   dernodisguise     I   am   un   dernodisguise
e |-------------------------------------------------------------------|
B |-------------------------------------------------------------------|
G |-------------------------------------------------------------------|
D |----------------------------------5---------------2-----2-----2----|
A |------------------3-----3-----3---------3-----3--------------------|
E |--5-----5-----5----------------------------------------------------|
      Iam       un   dernodisguise     I   am   un   dernodisguise

e |--5---------------8---------------15--------------10---------------|
B |--5---------------8---------------15--------------10---------------|
G |--4---------------7---------------14--------------9----------------|
D |--5---------------7------------------------------------------------|
A |--0---------------7---------------14--------------9----------------|
E |-------------------------------------------------------------------|
        oh              oh              oh            oh oh oh

e |--5---------------8---------------15--------------10---------------|
B |--5---------------8---------------15--------------10---------------|
G |--4---------------7---------------14--------------9----------------|
D |--5---------------7------------------------------------------------|
A |--0---------------7---------------14--------------9----------------|
E |-------------------------------------------------------------------|
     oh              oh              oh            oh oh oh


Related for Iamundernodisguise tab