Schoolyard Heroes - Contra tab

-----------------------------------------------------------------------------
                                 Contra 
-----------------------------------------------------------------------------
Song: Contra 
Artist: Schoolyard Heroes
Album: The Funeral Science 
tuning standard
Guitar Intro:
e----------------|
b----------------|
g----------------|
d-----8--8/9-8-6-|x7
a-6-6------------|
e----------------|

e-----------------|
b-----------------|
g-----------------|
d-----7-----7---7-|
a-6-6---666---6---|
e-----------------|

e------------------------|
b------------------------|
g------------------------|
d-8-8--8-8--4-4--4-4--66-|x2
a-6-6--6-6--2-2--2-2--44-|
e------------------------|
"Up up Down Down......"

e------------------------------|
b------------------------------|
g-9-9--11-11-11-11--13-13--8-8-|
d-9-9--11-11-11-11--13-13--8-8-|x3
a-7-7--9--9--9--9---11-11--6-6-|
e------------------------------|

Bass playing.........

e----------------|
b----------------|
g----------------|
d-----8--8/9-8-6-|x7
a-6-6------------|
e----------------|

e-----------------|
b-----------------|
g-----------------|
d-----7-----7---7-|
a-6-6---666---6---|
e-----------------|

e------------------------|
b------------------------|
g------------------------|
d-8-8--8-8--4-4--4-4--66-|x2
a-6-6--6-6--2-2--2-2--44-|
e------------------------|
"Up up Down Down......"

e------------------------------|
b------------------------------|
g-9-9--11-11-11-11--13-13--8-8-|
d-9-9--11-11-11-11--13-13--8-8-|x3
a-7-7--9--9--9--9---11-11--6-6-|
e------------------------------|
"B A select start....."

e------------|
b------------|
g------------|
d-9-9--11-11-|
a-7-7--9--9--|
e------------|

then the rest of it is blurry so idk................
Tap to rate this tab
 
# A B C D E F G H I J K L M N O P Q R S T U V W X Y Z