Song name
# A B C D E F G H I J K L M N O P Q R S T U V W X Y Z

Schroeders - Frsche tab

Heya,
I couldn't find a Tab to this Song, so I tried to find out how it works.
Thats my Version of this song, I hope you like it.

Beginn with:

e--------------------------------------------------------------
B--------------------------------------------------------------
G------------------------10--10--------------------------------
D--10--10--xx--7--7--xx--10--10--xx--5--5----------------------
A--10--10--xx--7--7--xx--8--8----xx--5--5----------------------
E---8--8---xx--5--5--xx----------xx--3--3----------------------

E----------------------------------------------------------------
B----------------------------------------------------------------
G----------------------------------------------------------------
D-----------------------10101010---------------------------------
A--10---/10--8-7--7--xx--8 8 8 8--x--5---------------------------
E--8----/8---6-5--5--xx-----------x--3---------------------------


etc. ....listen to it, so you will find out, and if you have a better
Version send it to: shroooooom@hotmail.com
Tap to rate this tab
 
# A B C D E F G H I J K L M N O P Q R S T U V W X Y Z