Guitaretab - guitar tabs
Song name
# A B C D E F G H I J K L M N O P Q R S T U V W X Y Z

Schuyler Fisk - Waking Life tab

Waking Life
Schuyler Fisk
From the Penelope Soundtrack
Standard Tuning; No Capo

Tabbed by Juliana (jck1211@msn.com)

Chords Used:

C	Fmaj7		Gsus		Am

e -----x---------x-------------x--------------x-----|
B -----1---------1-------------1--------------1-----|
G -----0---------2-------------0--------------2-----|
D -----2---------3-------------0--------------2-----|
A -----3---------3-------------2--------------0-----|
E -----x---------x-------------3--------------x-----|


Intro/Verse 1:
e----------------------------------------------------------------------------|
B------1--------1-------1---------1---------1--------1-------1---------1-----|
G----0--0-----0--0----0--0---2------2-----0--0-----0--0----0--0---2------2---|
D----------2--------0----------3----------------2--------0----------3--------|
Aó3------------------------------------3-------------------------------------|
E----------------------------------------------------------------------------|

Verse 1:
C				Fmaj7        C			Fmaj7
Thereís an anchor thatís pulling on my heart,
C				   Fmaj7	     C		Fmaj7
And itís deep in the water but it canít take me down.
C						  Fmaj7
Traciní faces with fingers and weíre just the same as we were,
	   C			   Fmaj7	Gsus
Just our eyes never found what I see now,
	Fmaj7			Gsus
That my feet are on the ground.
[ Tab from: http://www.guitaretab.com/s/schuyler-fisk/104877.html ]
Chorus:
	Fmaj7 C	 Gsus				Fmaj7 C  Gsus
Cause I'm not lost, just looking for footprints
		    Fmaj7 C  Gsus		     Fmaj7 C  Gsus
Iím taking it, one step at a time and Iím getting by, by the way
		Fmaj7 C  Gsus
Itís you on my mind,
		Fmaj7 C  Gsus
Itís you on my mind.

Verse 2:
C				Fmaj7			     C			Fmaj7
And here comes the night pulling puppet strings on my heart again,
C					Fmaj7			C	Gsus
Shows me all of this time Iíve been blind to this waking life.
	Fmaj7		Gsus
Now I...see it everywhere.

Chorus:
Cause I'm not lost, just looking for footprints, yeah
Iím taking it, a day at a time and Iím getting by, by the way
Youíre still on my mind,
Youíre still on my mind.

Fmaj7	    			  	   C
I...canít...see...you but I know youíre here,
    Fmaj7	Am
I, know youíre here.
   Fmaj7 	Gsus
I, know youíre here.

Fmaj7	C	Gsus	x2

Fmaj7 C	  Gsus				Fmaj7	C   Gsus
Iím not lost, just looking for footprints.
		 Fmaj7  C   Gsus		   Fmaj7 C    Gsus
Iím taking it, one step at a time and Iím getting by, by the way.

Fmaj7 C  Gsus				Fmaj7 C  Gsus
Iím not lost, just looking for footprints.
			Fmaj7 C  Gsus			Fmaj7 C Gsus
And Iím takin it, one step at a time and Iím gettiní by.

Gsus
And youíll still on my,
Gsus			Fmaj7 C  Gsus
Oh youíre still on my mind,
Gsus			Fmaj7 C  Gsus
Youíre still on my mind,
Gsus			Fmaj7 C  Gsus
Oh youíre still on my mind,
Gsus			Fmaj7 C  Gsus
Oh youíre still on my mind.

End on Gsus
Related for Waking Life tab