Song name
# A B C D E F G H I J K L M N O P Q R S T U V W X Y Z

Schuyler Fisk - Songs That Say Goodbye tab

Help us improve GuitareTab! Take a short survey!
-------------------------------------------------------------------------------
			     SONGS THAT SAY GOODBYE - Schuyler Fisk
-------------------------------------------------------------------------------
Tabbed by: Sharper
Email: Dark_Linkoc@hotmail.com

Tuning: EADGBe (Capo 2nd Fret)

I have been looking for tabs for this for ages, but then I decided to get off my lazy 
and try to figure it out, to some slight success.

(All Relative to Capo)

e|-----------------------------------------------------------------------|
B|---------------3---------------3------------------------------3--------|
G|------0---------------0---------------0------------0-----------------0-|
D|----4------4-------4-------4-------4----4--------4--------4--------4---|
A|--3------3-------3-------3------3--------------------------------------|
E|-----------------------------------------------3--------3--------3-----|


e|-----------------------------------------------------------------------|
B|-------------------3---------------------------------------------------|
G|---------0----------------0--------------------------------------------|
D|------4--------4--------4---4------------------------------------------|
A|-----------------------------------------------------------------------|
E|---3--------3--------3-------------------------------------------------|

That's the intro bit, I'm still having trouble with the "These words are heavy on my mind.."

If I work it out I'll add it, E-Mail me comments suggestions.

Enjoy!

| /  slide up
| \  slide down
| h  hammer-on
| p  pull-off
| ~  vibrato
| +  harmonic
| x  Mute note
===============================================================================
Related for Songs That Say Goodbye tab