Song name
# A B C D E F G H I J K L M N O P Q R S T U V W X Y Z

Schwarzer Engel - Konigin Der Nacht tab

http://schwarzerengel.info/
Tuning: drop c
Chorus
D]---------------------------------------------------|
A]---------------------------------------------------|
F]---------------------------------------------------|
C]-12-12-0-12-12-0-12-12-0-12-12-0-8-8-0-8-8-0-8-8-0-|
G]-12-12-0-12-12-0-12-12-0-12-12-0-8-8-0-8-8-0-8-8-0-|
C]-12-12-0-12-12-0-12-12-0-12-12-0-8-8-0-8-8-0-8-8-0-|
D]-------------------------------------------|
A]-------------------------------------------|
F]-------------------------------------------|
C]-5-5-0-5-5-0-5-5-0-12-12-0-12-12-0-12-12-0-|
G]-5-5-0-5-5-0-5-5-0-12-12-0-12-12-0-12-12-0-|
C]-5-5-0-5-5-0-5-5-0-12-12-0-12-12-0-12-12-0-|
Verse
D]---------------------------|
A]---------------------------|
F]---------------------------|
C]-0----1--0--0-0--1-3-3-3-3-|
G]-0----1--0--0-0--1-3-3-3-3-|
C]-0----1--0--0-0--1-3-3-3-3-|
PreVerse
D]----------------------------------------------|
A]----------------------------------------------|
F]----------------------------------------------|
C]-0--1-1-1--0--0-0-1-1-3-3-3-3-8-8-8-8-5-5-5-5-|
G]-0--1-1-1--0--0-0-1-1-3-3-3-3-8-8-8-8-5-5-5-5-|
C]-0-1-1-1--0--0-0-1-1-3-3-3-3-8-8-8-8-5-5-5-5-|
Bridge mit Flanger
D]-------------------------|
A]-------------------------|
F]-------------------------|
C]-12-12-12-12-12-12-12-12-|
G]-12-12-12-12-12-12-12-12-|
C]-12-12-12-12-12-12-12-12-|

Solo
D]-------------------------------------------------------|
A]-3-5-6-5-3------/15-17-18-17--------8-10-11-10-8-11-10-|
F]-----------5-3---------------17-12---------------------|
C]-------------------------------------------------------|
G]-------------------------------------------------------|
C]-------------------------------------------------------|

D]-------13-------13--------------|
A]-10-11----10-11----10-11-10/15~-|
F]--------------------------------|
C]--------------------------------|
G]--------------------------------|
C]--------------------------------|

D]-----------------------------------------------------------------|
A]-15-17-18-17-15--------------------------------------------------|
F]----------------17-15-14-12-10-12-10-9-10-14-12-10-9-12-10-9-5/7-|
C]-----------------------------------------------------------------|
G]-----------------------------------------------------------------|
C]-----------------------------------------------------------------|
Tap to rate this tab
# A B C D E F G H I J K L M N O P Q R S T U V W X Y Z