Song name
# A B C D E F G H I J K L M N O P Q R S T U V W X Y Z

Schweisser - Irgendwannmal tab

---------------------------------------------------------------------------
			    Irgendwannmal - SCHWEISSER
---------------------------------------------------------------------------

Transcribed By: Jens Binder
Email:          jens-binder@gmx.de


Dropped D-tuning
Listen to the song for accurate timing



ich bin schon fast tot

E||--------------------------------------------------------------||
B||--------------------------------------------------------------||
G||--------------------------------------------------------------||
D||--------------------------------------------------------------||
A||-----2-----3--2-----2-----3--2-----2-----3--2-----2-----3--5--||
D||--0--2--0--3--2--0--2--0--3--2--0--2--0--3--2--0--2--0--3--5--||


E||-------------------------------------------------------------------------|
B||-12-12-12-13----12--12-12-12-13----12--12-12-12-13----12--12-12-12-13-15-|
G||-------------14-----------------14-----------------14--------------------|
D||-------------------------------------------------------------------------|
A||-------------------------------------------------------------------------|
D||-------------------------------------------------------------------------|


tief in den gemaeurn eurer festung
leben wir versteckt
und trinken rostiges abwasser
das aus alten rohren leckt
taumeln traege durch die katakomben
tasten tapsen blind
kratzen schimmel von den waenden
bis die finger blutig sind

E||--------------------------------------------------------------||
B||--------------------------------------------------------------||
G||--------------------------------------------------------------||
D||--------------------------------------------------------------||
A||-----2-----3--2-----2-----3--2-----2-----3--2-----2-----3--5--||
D||--0--2--0--3--2--0--2--0--3--2--0--2--0--3--2--0--2--0--3--5--||


die luft wird langsam immer knapper
ich muss rauss doch nicht sofort
ich will noch ein stueckchen weiter
eine runde schaff ich noch

REFRAIN

E||------------------------------------------------||
B||------------------------------------------------||
G||------------------------------------------------||
D||------------------------------------------------||
A||--0-----------------2-h-3--------------2--0--2--||
D||--0--0--0--0--0--0--2-h-3--0--0--0--0--2--0--2--||

ich hab die regeln nicht gemacht
am anfang da war es nur spass
wir spielen weiter bis zum schluss
mir ist egal wie weh es tut

E||--------------------------------||
B||--------------------------------||
G||--------------------------------||
D||--------------------------------||
A||--0--3--5--7--3--0--3--5--7--3--||
D||--0--3--5--7--3--0--3--5--7--3--||


lass mich noch ein level weiter
lass mich nur noch in ein zimmer sehn

E||--------------------------------------------------------------||
B||--------------------------------------------------------------||
G||--------------------------------------------------------------||
D||--------------------------------------------------------------||
A||-----2-----3--2-----2-----3--2-----2-----3--2-----2-----3--5--||
D||--0--2--0--3--2--0--2--0--3--2--0--2--0--3--2--0--2--0--3--5--||



E||----------------------------------------------||
B||----------------------------------------------||
G||----------------------------------------------||
D||----------------------------------------------||
A||--0--0-0--0--0--0-0--0--0--0-0--0--0--0-0--0--||
D||--0--0-0--0--0--0-0--0--0--0-0--0--0--0-0--0--||


irgendwannmal
irgendwannmal
irgendwannmal
irgendwannmal
irgendwannmal
irgendwannmal


REFRAIN

E||-----------------------------------------------||
B||-----------------------------------------------||
G||-----------------------------------------------||
D||-----------------------------------------------||
A||--0-----------------2-h-3--------------2--0--2-||
D||--0--0--0--0--0--0--2-h-3--0--0--0--0--2--0--2-||

ich hab die regeln nicht gemacht
am anfang da war es nur spass
wir spielen weiter bis zum schluss
mir ist egal wie weh es tut

E||--------------------------------||
B||--------------------------------||
G||--------------------------------||
D||--------------------------------||
A||--0--3--5--7--3--0--3--5--7--3--||
D||--0--3--5--7--3--0--3--5--7--3--||


lass mich noch ein level weiter
lass mich nur noch in ein zimmer sehn

E||--------------------------------------------------------------||
B||--------------------------------------------------------------||
G||--------------------------------------------------------------||
D||--------------------------------------------------------------||
A||-----2-----3--2-----2-----3--2-----2-----3--2-----2-----3--5--||
D||--0--2--0--3--2--0--2--0--3--2--0--2--0--3--2--0--2--0--3--5--||

SCHLUSS

E||-----------------------------------------------------||
B||-----------------------------------------------------||
G||-----------------------------------------------------||
D||-----------------------------------------------------||
A||--3--0--2--0--8----10--8--|--3--0--2--0--8----10--8--||
D||--3--0--2--0--8----10--8--|--3--0--2--0--8----10--8--||

************************************

| /   slide up
| \   slide down
| h   hammer-on
| p   pull-off
| ~   vibrato
| +   harmonic
| x   Mute note
| b   Bend
| pb  Pre-bend
| br  Bend release
| pbr Pre-bend release
| brb Bend release bend

************************************
Tap to rate this tab
 
# A B C D E F G H I J K L M N O P Q R S T U V W X Y Z