Song name
# A B C D E F G H I J K L M N O P Q R S T U V W X Y Z

Schweisser - Immer Im Kreis tab

---------------------------------------------------------------------------
			    Immer im Kreis - SCHWEISSER
---------------------------------------------------------------------------

Transcribed By: Jens Binder
Email:          jens-binder@gmx.de


Dropped D-tuning
Listen to the song for accurate timing


E||------------------------------------------------------------------|
B||----guitar-arranged for bass--------------------------------------|
G||----repeat several times------------------------------------------|
D||------------------------------------------------------------------|
A||------------------------------------------------------------------|
D||--12--12--12--13--13--13--12--12--12--13--13--13--12--12--10--10--|


E||------------------------------------------------------------------||
B||------------------------------------------------------------------||
G||------------------------------------------------------------------||
D||------------------------------------------------------------------||
A||------------------------------------------------------------------||
D||--12--12--12--13--13--13--12--12--12--13--13--13--12--12--15--17--||

1. STROPHE

E||-----------------------------------------------------------------|
B||-----------------------------------------------------------------|
G||-----------------------------------------------------------------|
D||-----------------------------------------------------------------|
A||--12-----------------------------------------------13------------|
D||--12-----------------------------------------------13------------|

draussen vor meinem fenster spielen kinder
auf der strasse
draussen zieht der fluss vorbei
draussen dreht die welt sich weiter
ich hier drin dreh mich im kreis
nauch aussen bin ich immer freundlich und sehr ruhig
lasse nichts in mich hinein
komm einmal ein stueckchen naeher
dann hoerst du es drinnen schreien


REFRAIN

E||------------------------------------------------------------------|
B||----guitar-arranged for bass--------------------------------------|
G||----repeat several times------------------------------------------|
D||------------------------------------------------------------------|
A||------------------------------------------------------------------|
D||--12--12--12--13--13--13--12--12--12--13--13--13--12--12--10--10--|

weiter und immer weiter und immer weiter im kreis
jeden tag und jede nacht
manchmal fuehl ich mich wie 12
und manchmal ueber 100 jahre alt



E||------------------------------------------------------------------||
B||------------------------------------------------------------------||
G||------------------------------------------------------------------||
D||------------------------------------------------------------------||
A||------------------------------------------------------------------||
D||--12--12--12--13--13--13--12--12--12--13--13--13--12--12--15--17--||


E||--------------------------------------------------------------------|
B||--------------------------------------------------------------------|
G||--------------------------------------------------------------------|
D||--------------------------------------------------------------------|
A||--12-12--12-13-13-12-12--12-13-13-12--10--12--13--12--13--12--15--17|
D||--12-12--12-13-13-12-12--12-13-13-12--10--12--13--12--13--12--15--17|

  Weiter und immer weiter und immer weiter im Kreis jeden Tag und jede Nacht
     

E||------------------------------------------------------------------||
B||------------------------------------------------------------------||
G||------------------------------------------------------------------||
D||------------------------------------------------------------------||
A||--12---13---12---13---12---10---12---13---12---13---12---13---15--||
D||--12---13---12---13---12---10---12---13---12---13---12---13---15--||

     Ich schlage meine Fäuste blutig an der grob verputzen Wand

E||-------------------------------------------------------|
B||-------------------------------------------------------|
G||-------------------------------------------------------|
D||-------------------------------------------------------|
A||--5---6---5---6---5---3----5---6---5---6---5---3---0---|
D||--5---6---5---6---5---3----5---6---5---6---5---3---0---|

     Irgendwo                 Irgendwo                


    
2. STROPHE analog 1. Strophe

die bombenkrater meiner seelenlandschaft
fuellen sich mit wasser
hier und da spriesst wieder gras
frag mich nicht nach gestern
kenn ich nicht wann war denn das
ich weiss nicht wie lange ich schon hier bin
einen tag oder 10 jahre
manchmal fliegt ein stein ans fenster
ich weiss nicht von wem


2. REFRAIN

E||--------------------------------------------------------------------|
B||--------------------------------------------------------------------|
G||--------------------------------------------------------------------|
D||--------------------------------------------------------------------|
A||--12-12--12-13-13-12-12--12-13-13-12--10--12--13--12--13--12--15--17|
D||--12-12--12-13-13-12-12--12-13-13-12--10--12--13--12--13--12--15--17|

  Weiter und immer weiter und immer weiter im Kreis jeden Tag und jede Nacht
     

E||------------------------------------------------------------------||
B||------------------------------------------------------------------||
G||------------------------------------------------------------------||
D||------------------------------------------------------------------||
A||--12---13---12---13---12---10---12---13---12---13---12---13---15--||
D||--12---13---12---13---12---10---12---13---12---13---12---13---15--||

     Ich schlage meine Fäuste blutig an der grob verputzen Wand

E||--------------------------------------------------|
B||--------------------------------------------------|
G||--------------------------------------------------|
D||--------------------------------------------------|
A||--5---6---5---6---5---3----5---6---5---6---5---3--|
D||--5---6---5---6---5---3----5---6---5---6---5---3--|

     Irgendwo                 Irgendwo  

E||----------------------------------------------------------|
B||----------------------------------------------------------|
G||----------------------------------------------------------|
D||----------------------------------------------------------|
A||--5---6---5---6---5---3----5---6---5---6---5---3---6---8--|
D||--5---6---5---6---5---3----5---6---5---6---5---3---6---8--|

     Irgendwo da draussen da muss doch noch was andres sein              


ZWISCHWNSPIEL


E||--------------------------------|-----------------------------||
B||--------------------------------|-----------------------------||
G||--------------------------------|-----------------------------||
D||--0-----8-----7----0----3-3--2--|--0----8----7----0----3---5--||
A||--0-----8-----7----0----3-3--2--|--0----8----7----0----3---5--||
D||--0-----8-----7----0----3-3--2--|--0----8----7----0----3---5--||

     Loesch    die   Traeume   aus      meinem     Kopf     heraus
     Gib  mir Schlaf so schwer      und   suess   wie     nie zuvor
     Ich will bruellen wo ich nicht mal fluestern kann
     Ich will lachen wo ich nicht mal weinen kann
     Ich will tanzen wo ich nicht mal aufrecht geh
     Einmal nur will ich das Herz der Sonne sehn

E||--------------------------------------------------|
B||--------------------------------------------------|
G||--------------------------------------------------|
D||--------------------------------------------------|
A||--5---6---5---6---5---3----5---6---5---6---5---3--|
D||--5---6---5---6---5---3----5---6---5---6---5---3--|

     Irgendwo                 Irgendwo                

E||----------------------------------------------------------|
B||----------------------------------------------------------|
G||----------------------------------------------------------|
D||----------------------------------------------------------|
A||--5---6---5---6---5---3----5---6---5---6---5---3---6---8--|
D||--5---6---5---6---5---3----5---6---5---6---5---3---6---8--|

     Irgendwo da draussen da muss doch noch was andres sein


Schluss


E||---------------------------------------------||
B||--einige male--------------------------------||
G||---------------------------------------------||
D||--0--0---0--1--1--0--0---0--1--1--0--0---10--||
A||--0--0---0--1--1--0--0---0--1--1--0--0---10--||
D||--0--0---0--1--1--0--0---0--1--1--0--0---10--||

danach Rythmusswechsel zu

E||--------------------------------------|
B||--einige male-------------------------|
G||--------------------------------------|
D||--0--1--1--0--0---0--1--1--0--0---10--|
A||--0--1--1--0--0---0--1--1--0--0---10--|
D||--0--1--1--0--0---0--1--1--0--0---10--|


E||---------------------------------------------|--------||
B||---------------------------------------------|--------||
G||---------------------------------------------|--------||
D||--0--0---0--1--1--0--0---0--1--1--0--0---10--|--0--0--||
A||--0--0---0--1--1--0--0---0--1--1--0--0---10--|--0--0--||
D||--0--0---0--1--1--0--0---0--1--1--0--0---10--|--0--0--||

************************************

| /   slide up
| \   slide down
| h   hammer-on
| p   pull-off
| ~   vibrato
| +   harmonic
| x   Mute note
| b   Bend
| pb  Pre-bend
| br  Bend release
| pbr Pre-bend release
| brb Bend release bend

************************************
Tap to rate this tab
 
# A B C D E F G H I J K L M N O P Q R S T U V W X Y Z