Song name
# A B C D E F G H I J K L M N O P Q R S T U V W X Y Z

Schweisser - Wolfen tab

-------------------------------------------------------------------------------
			    Wolfen - SCHWEISSER
-------------------------------------------------------------------------------

Transcribed By: Jens Binder
Email:          jens-binder@gmx.de


Dropped D-tuning
Listen to the song for accurate timing


E||-----------------------------|---------------------------|
B||-----------------------------|---------------------------|
G||----repeat 4x----------------|---------------------------|
D||-----------------------------|---------------------------|
A||--0--1--0-0--0-0-1-0-0-0-1-0-|-0--1-0-0--0-0-1-0-0-0-1-0-|
D||--0--1--0-0--0-0-1-0-0-0-1-0-|-0--1-0-0--0-0-1-0-0-0-1-0-|

     Es wird dunkel               Ich verlasse den Bau
     Es wird Abend                Ich gehe auf die Jagt



E||--------------------||
B||--------------------||
G||--------------------||
D||--8----7----8----7--||
A||--8----7----8----7--||
D||--8----7----8----7--||

mein herz schreit nach futter
meine gedanken drehen sich nur um eins
fleisch frisches fleisch


E||-----------------------------------------|
B||-----------------------------------------|
G||-----------------------------------------|
D||-8-8-8-8-8-7-7-7-7-7-6-6-6-6-6-5-5-5-5-5-|
A||-8-8-8-8-8-7-7-7-7-7-6-6-6-6-6-5-5-5-5-5-|
D||-8-8-8-8-8-7-7-7-7-7-6-6-6-6-6-5-5-5-5-5-|


ich riss mir ein rehlein und trank sein warmes blut
waehrend es leise zitternd verendete
hatte ich noch nicht genug
das war nur fuer den durst fuer den hunger war das nichts

REFRAIN

E||---------------------------------------------------||
B||---------------------------------------------------||
G||---------------------------------------------------||
D||---------------------------------------------------||
A||--3-S-5---5-S-7--7-S--10---5--0--0--5--0--0--5--0--||
D||---------------------------5--0--0--5--0--0--5--0--||


gir mir nahrung mach mich satt
ich halte die nase in die nachtluft ich suche dich

E||-----------------------------|---------------------------|
B||-----------------------------|---------------------------|
G||-----------------------------|---------------------------|
D||-----------------------------|---------------------------|
A||--0--1--0-0--0-0-1-0-0-0-1-0-|-0--1-0-0--0-0-1-0-0-0-1-0-|
D||--0--1--0-0--0-0-1-0-0-0-1-0-|-0--1-0-0--0-0-1-0-0-0-1-0-|

2. STROPHE

E||--------------------||
B||--------------------||
G||--------------------||
D||--8----7----8----7--||
A||--8----7----8----7--||
D||--8----7----8----7--||

hoffentlich erkennt mich niemand wenn ich die kontrolle verlier
ich sauge tief den duft ein ich schnueffel wie ein tier


E||-----------------------------------------|
B||-----------------------------------------|
G||-----------------------------------------|
D||-8-8-8-8-8-7-7-7-7-7-6-6-6-6-6-5-5-5-5-5-|
A||-8-8-8-8-8-7-7-7-7-7-6-6-6-6-6-5-5-5-5-5-|
D||-8-8-8-8-8-7-7-7-7-7-6-6-6-6-6-5-5-5-5-5-|

ich lecke die wunde die ich in den zarten koerper schlug
waehrend du leise zitterst
doch nicht etwa aus angst und auch nicht vor erschoepfung
vor lust vor lust vor lust vor lust

REFRAIN (2x)

E||---------------------------------------------------|
B||---------------------------------------------------|
G||---------------------------------------------------|
D||---------------------------------------------------|
A||--3-S-5---5-S-7--7-S--10---5--0--0--5--0--0--5--0--|
D||---------------------------5--0--0--5--0--0--5--0--|


gir mir nahrung mach mich satt
ich halte die nase in die nachtluft ich suche dich


E||--------------------------------|
B||--------------------------------|
G||--------------------------------|
D||--7-8-7--7-8-10---7-8-7--7-8-10-|
A||--7-8-7--7-8-10---7-8-7--7-8-10-|
D||--7-8-7--7-8-10---7-8-7--7-8-10-|

ganz egal wo du bist
versteck dich ruhig ich finde dich


E||---------------------------------------------------|
B||---------------------------------------------------|
G||---------------------------------------------------|
D||---------------------------------------------------|
A||--------------------------------------------1--0-0-|
D||--0-0-0-0---0-0-0-0-0-0---0-0-0-0-0-0---0-0-1--0-0-|

E||-------------------------------------------------|
B||-------------------------------------------------|
G||-------------------------------------------------|
D||-------------------------------------------------|
A||--------------------------------------------1--3-|
D||--0-0-0-0---0-0-0-0-0-0---0-0-0-0-0-0---0-0-1--3-|



E||-----------------------------------------|
B||-----------------------------------------|
G||-----------------------------------------|
D||-8-8-8-8-8-7-7-7-7-7-6-6-6-6-6-5-5-5-5-5-|
A||-8-8-8-8-8-7-7-7-7-7-6-6-6-6-6-5-5-5-5-5-|
D||-8-8-8-8-8-7-7-7-7-7-6-6-6-6-6-5-5-5-5-5-|


der geruch von nassgeschwitzten koerpern
der geschmack von nackter haut
weiches warmes fleisch so saftig suess und sinnlich
die verbotene frucht

REFRAIN (3x)

E||---------------------------------------------------|
B||---------------------------------------------------|
G||---------------------------------------------------|
D||---------------------------------------------------|
A||--3-S-5---5-S-7--7-S--10---5--0--0--5--0--0--5--0--|
D||---------------------------5--0--0--5--0--0--5--0--|


gir mir nahrung mach mich satt
ich halte die nase in die nachtluft ich suche dich

************************************

| /   slide up
| \   slide down
| h   hammer-on
| p   pull-off
| ~   vibrato
| +   harmonic
| x   Mute note
| b   Bend
| pb  Pre-bend
| br  Bend release
| pbr Pre-bend release
| brb Bend release bend

************************************
Tap to rate this tab
 
# A B C D E F G H I J K L M N O P Q R S T U V W X Y Z